Song name
# A B C D E F G H I J K L M N O P Q R S T U V W X Y Z

Earshot - Tongue Tied tab

Band: Earshot
Song: Tongue Tied

Tabbed by: drewnell@hotmail.com

Tuning: Drop D

Intro:
E|------------------------------------|
B|------------------------------------|
G|------------------------------------|
D|-------------(4)------(4)-----------|
A|---(4)-(4)-(4)----(4)-(4)---(4)-----|
D|------------------------------------|
      |-------harmonics---------------|

E|----------------------------------------------|
B|----------------------------------------------|
G|---6---------9---------0---------11-----------|
D|---4-(x8)-----7-(x8)----0-(x8)-----9-(x8)-----|
A|---4---------7---------0---------9------------|
D|---4---------7---------0---------9------------|

E|----------------------------------------------|
B|----------------------------------------------|
G|---6---------9---------0---------4------------|
D|---4-(x8)-----7-(x8)----0-(x8)-----2-(x8)-----|
A|---4---------7---------0---------2------------|
D|---4---------7---------0---------2------------|

Verse: Gtr1
E|---------------------------------------------|
B|---------------------------------------------|
G|---6-6--------9-9--------0-0--------9-9------|
D|---4-4--------7-7--------0-0--------9-9------|
A|---4-4--------7-7--------0-0--------9-9------|
D|---4-4--------7-7--------0-0--------9-9------|

Verse: Gtr2
E|---------------------------------------------------------------|
B|---------------------------------------------------------------|
G|---------------------------------------------------------------|
D|--------4-----4------7------7------4------4------4------4------|
A|---4-4---4-4----7-7----7-7----0-0----0-0----2-2----2-2---------|
D|---4-4---4-4----7-7----7-7----0-0----0-0-----------------------|
       | -----------------------------PM-------------------------|

Chorus:
E|----------------------------------------------|
B|----------------------------------------------|
G|---6---------9---------0---------11-----------|
D|---4-(x8)----7-(x8)-----0-(x8)-----9-(x8)-----|
A|---4---------7---------0---------9------------|
D|---4---------7---------0---------9------------|

E|----------------------------------------------|
B|----------------------------------------------|
G|---6---------9---------0---------4------------|
D|---4-(x8)----7-(x8)-----0-(x8)-----2-(x8)-----|
A|---4---------7---------0---------2------------|
D|---4---------7---------0---------2------------|

Bridge:
E|------------------------------------|
B|------------------------3-----------|
G|---6---------4---------2------------|
D|---4-(x8)----2-(x8)-----0-(x16)-----|
A|---4---------2---------0------------|
D|---4---------2---------0------------|
Tap to rate this tab
 
# A B C D E F G H I J K L M N O P Q R S T U V W X Y Z