Song name
# A B C D E F G H I J K L M N O P Q R S T U V W X Y Z

Earth - Divine And Bright tab

intro
|----R--|
|----A--|
|----N--|
|-5--D--|
|-5--O--|
|-3--M--|

main riff
|----------------------------|
|----------------------------|
|----------------------------|
|-/5--5-5--5-5---------------|
|-/5--5-5--5-5--/5--5-5--5-5-|
|-/3------------/3--3-3--3-3-|

2nd riff
|---------------------------------------|-------------------------|
|---------------------------------------|-------------------------|
|---------------------------------------|-------------------------|
|-/5--5-5-------------------------------|-/5--5-5-/4--4-4-/2--2-0-|
|-/5--5-5-/5--5-5-10--10-10-10-5--5-5-5-|-/5--5-5-/4--4-4-/2--2-0-|
|-/3------/3--3-3- 8-- 8- 8- 8-3--3-3-3-|-/3------/2-------0------|
Tap to rate this tab
# A B C D E F G H I J K L M N O P Q R S T U V W X Y Z