Song name
# A B C D E F G H I J K L M N O P Q R S T U V W X Y Z

Easyworld - Enjoy The Silence tab

Enjoy the Silence (cover)


Verse 1

Cmin
Words like violence
Ebmin
Break the silence
G#
Come crashing in
Into my little world
Cmin
Painful to me
Ebmin
Pierce right through me
G#
Can't you understand
Oh my little girl


Chorus

Fmin
All I ever wanted
G#
All I ever needed
Cmin            Bb
Is here in my arms
Fmin
Words are very
G#
unnecessary
Cmin                    B
They can only do harm


Verse 2 (same as verse one)

G-5-7-8-10---3-5-7-8-8/10\8---|
D----------6----------------6-|
A-3-5-6-8--6-1-3-5-6-6/8 \6-6-|
E----------4----------------4-|

Vows are spoken
To be broken
Feelings are intense
Words are trivial
Pleasures remain
So does the pain
Words are meaningless
And forgettable


Repeat Chorus


Solo

e--------------------------------|
B--------------------------------|
G-10-12-13-----------------------|
D----------13-6-10-13-6-10-12-13-|
A-8--10-11-----------------------|
E----------11-4-8--11-4-8--10-11-|

e---------------------------|
B---------------------------|
G-10-12-13------------10-12-|
D----------13-6-10-13-------|
A-8--10-11------------8--10-|
E----------11-4-8--11-------|


Repeat Chorus


Cmin            Ebmin   G#
Enjoy the silence
Tap to rate this tab
# A B C D E F G H I J K L M N O P Q R S T U V W X Y Z