Song name
# A B C D E F G H I J K L M N O P Q R S T U V W X Y Z

Easyworld - You And Me chords

You and Me

riff 1
e---------------------------5-----|
B----9------14----------------5---|
G------9/14----14-----8\7\6-----6-|
D-/9---------------/9~~\8\7-------|
A---------------------------------|
E---------------------------------|


Intro

riff 1 x2

A
E       A       B       Bb      A
E       A       B       Bb      A


Verse 1

e----------------------------------------|
B----------------------------------14----|
G----9---------------9-----9----------14-|
D----9---------------9-----9---/14-------|
A----7---------------7-----7-------------|
E----------------------------------------|
Were getting down and dirty
Iím gonna hurt somebody
I hope youíre feeling thirsty sweet thing
Cos Iím courting controversy


Chorus

A
And now you
E
Look like youíre
A               B Bb A
Innocent baby
A
And now you
E
Tell all your
A                       B Bb A
Friends that you hate me
A
But every
E
Weekend weíre
A               B Bb A
At it like crazy
A
You and me
E       A       B Bb A


Repeat Intro x2


Verse 2 (as verse 1)

So come around and see me
I mix a mean martini
And maybe later beat me senseless
And then after dinner eat me


Repeat Chorus


Middle 8

F#      F       E
Aaaaaaaaaah
A       Bb
Aaaaaaaaaah
No chord
BaDaBah!
A                       E(1strum then stop)             B Bb A
And now you look like youíre innocent baby

Continue Chorus


Outro using chorus chords

and now you look you look
you look like youíre innocent baby
oh you tell all your friends that you hate me
yeeeeeeaaaaaaaaah oh!

End on A


Bits Added to Single Version

As with album version just more guitars and stuff. Everythings distorted

This riff joins in the verses

e-----------------------------|
B-----------------------------|
G-----------------------------|
D---6---7b8r7-6---------5-5-6-|
A-7---7-----------6\5\4-------|
E---------------7--\6\5-------|
Tap to rate this tab
 
# A B C D E F G H I J K L M N O P Q R S T U V W X Y Z