Song name
# A B C D E F G H I J K L M N O P Q R S T U V W X Y Z

Eiffel 65 - Blue tab

THE OTHER TAB WAS 5 STARS BUT THIS ONE IS EASIER BECAUSE 
IT REQUIRES LESS STRING MUTING.

Obviously there's no guitar in this song. This is just 
a transcription of the piano, chorus, and synth melody.


e----------------------------------------------------|
B----------------------------------------------------|
G--------------------5------------------7--8-----7--5|
D--/7----8-----5--8--------7--8---5--8--------5------|
A-----------5-----------8----------------------------|
E----------------------------------------------------|



e----------------------------------------------|
B----------------------------------------------|
G--------------5------------------7--8-----7--5|
D--8-----5--8--------7--8---5--8--------5------|
A-----5-----------8----------------------------|
E----------------------------------------------| 


e----------------------------------------------|
B----------------------------------------------|
G--------------5------------------7--8-----7--5|
D--8-----5--8--------7--8---5--8--------5------|
A-----5-----------8----------------------------|
E----------------------------------------------| 


e----------------------------------------------|
B----------------------------------------------|
G--------------5------------------7--8-----7--5|
D--8-----5--8--------7--8---5--8--------5------|
A-----5-----------8----------------------------|
E----------------------------------------------| 


e---------------------------|
B---------------------------|
G---------------------------|
D--8-----5--8--7--------5~--|
A-----5-----------8--5------|
E---------------------------|

I am so n00by that I couldn't figure out the other parts.
Tap to rate this tab
# A B C D E F G H I J K L M N O P Q R S T U V W X Y Z