Song name
# A B C D E F G H I J K L M N O P Q R S T U V W X Y Z

Eisbrecher - Prototyp tab

PM: Palm Mute

Chorus

(x2)
D-----------------------------------------------|         
A-----------------------------------------------|        
F-----------------------------------------------|        
C--5-5-5-5-5-5-5--5-5-5-5-5-5-7-7-7-7-7-7-7h8/2-|        
G--5-5-5-5-5-5-5--5-5-5-5-5-5-7-7-7-7-7-7-7h8/2-|        
C--5-5-5-5-5-5-5--5-5-5-5-5-5-7-7-7-7-7-7-7h8/2-|         

D----------------------------|          
A----------------------------|          
F----------------------------|          
C--2-2-0-2-2-0-2-2-0-2-2-0/5-|          
G--2-2-0-2-2-0-2-2-0-2-2-0/5-|          
C--2-2-0-2-2-0-2-2-0-2-2-0/5-|

(x1)
D----------------------------------------------|          
A----------------------------------------------|        
F----------------------------------------------|        
C--5-5-5-5-5-5-5-5-5-5-5-5-5-7-7-7-7-7-7-7h8/2-|        
G--5-5-5-5-5-5-5-5-5-5-5-5-5-7-7-7-7-7-7-7h8/2-|        
C--5-5-5-5-5-5-5-5-5-5-5-5-5-7-7-7-7-7-7-7h8/2-|                  

D--------------------------------|          
A--------------------------------|          
F--------------------------------|    
C--2222-0-2222-0-2222-0-2222-0/5-|          
G--2222-0-2222-0-2222-0-2222-0/5-|          
C--2222-0-2222-0-2222-0-2222-0/5-| 
   PMPM   PMPM   PMPM   PMPM

(x2)
D-----------------------------------------------|         
A-----------------------------------------------|        
F-----------------------------------------------|        
C--5-5-5-5-5-5-5--5-5-5-5-5-5-7-7-7-7-7-7-7h8/2-|        
G--5-5-5-5-5-5-5--5-5-5-5-5-5-7-7-7-7-7-7-7h8/2-|        
C--5-5-5-5-5-5-5--5-5-5-5-5-5-7-7-7-7-7-7-7h8/2-|         

D----------------------------|          
A----------------------------|          
F----------------------------|          
C--2-2-0-2-2-0-2-2-0-2-2-0/5-|          
G--2-2-0-2-2-0-2-2-0-2-2-0/5-|          
C--2-2-0-2-2-0-2-2-0-2-2-0/5-|

Prechorus 
D----------------------------------------------|          
A----------------------------------------------|          
F----------------------------------------------|          
C--2-2--2--5-5--5--7-7--7--5-5--5--2-2--2-xx2x|          
G--2-2--2--5-5--5--7-7--7--5-5--5--2-2--2-xx2x|          
C--2-2--2--5-5--5--7-7--7--5-5--5--2-2--2--xx2x|          

Chorus

(x2)
D-----------------------------------------------|         
A-----------------------------------------------|        
F-----------------------------------------------|        
C--5-5-5-5-5-5-5--5-5-5-5-5-5-7-7-7-7-7-7-7h8/2-|        
G--5-5-5-5-5-5-5--5-5-5-5-5-5-7-7-7-7-7-7-7h8/2-|        
C--5-5-5-5-5-5-5--5-5-5-5-5-5-7-7-7-7-7-7-7h8/2-|         

D----------------------------|          
A----------------------------|          
F----------------------------|          
C--2-2-0-2-2-0-2-2-0-2-2-0/5-|          
G--2-2-0-2-2-0-2-2-0-2-2-0/5-|          
C--2-2-0-2-2-0-2-2-0-2-2-0/5-|

(x1)
D----------------------------------------------|          
A----------------------------------------------|        
F----------------------------------------------|        
C--5-5-5-5-5-5-5-5-5-5-5-5-5-7-7-7-7-7-7-7h8/2-|        
G--5-5-5-5-5-5-5-5-5-5-5-5-5-7-7-7-7-7-7-7h8/2-|        
C--5-5-5-5-5-5-5-5-5-5-5-5-5-7-7-7-7-7-7-7h8/2-|                  

D--------------------------------|          
A--------------------------------|          
F--------------------------------|    
C--2222-0-2222-0-2222-0-2222-0/5-|          
G--2222-0-2222-0-2222-0-2222-0/5-|          
C--2222-0-2222-0-2222-0-2222-0/5-| 
   PMPM   PMPM   PMPM   PMPM

(x2)
D-----------------------------------------------|         
A-----------------------------------------------|        
F-----------------------------------------------|        
C--5-5-5-5-5-5-5--5-5-5-5-5-5-7-7-7-7-7-7-7h8/2-|        
G--5-5-5-5-5-5-5--5-5-5-5-5-5-7-7-7-7-7-7-7h8/2-|        
C--5-5-5-5-5-5-5--5-5-5-5-5-5-7-7-7-7-7-7-7h8/2-|         

D----------------------------|          
A----------------------------|          
F----------------------------|          
C--2-2-0-2-2-0-2-2-0-2-2-0/5-|          
G--2-2-0-2-2-0-2-2-0-2-2-0/5-|          
C--2-2-0-2-2-0-2-2-0-2-2-0/5-|

Interlude 
D------------------------------------------------------------------------|          
A------------------------------------------------------------------------|          
F------------------------------------------------------------------------|          
C-2-2--2---0-0--0---5-5--5---5-5--5--2-2--2---0-0--0---5-5--5---4-4--4--|          
G-2-2--2---0-0--0---5-5--5---5-5--5---2-2--2---0-0--0---55--5---4-4-4-|          
C-2-2-2---0-0--0---5-5--5---5-5--5--2-2--2---0-0--0---5-5--5---4-4-4-|

D----------------------------------------------|          
A----------------------------------------------|        
F----------------------------------------------|        
C--0-0--0---5-5--5---5-5--5---2-2--2-----------|        
G--0-0--0---5-5--5---5-5--5---2-2-2-----------|        
C--0-0--0---5-5--5---5-5--5---2-2--2---5-5--5--|         
                                       PMPMPM
Chorus
(x2)
D-----------------------------------------------|         
A-----------------------------------------------|        
F-----------------------------------------------|        
C--5-5-5-5-5-5-5--5-5-5-5-5-5-7-7-7-7-7-7-7h8/2-|        
G--5-5-5-5-5-5-5--5-5-5-5-5-5-7-7-7-7-7-7-7h8/2-|        
C--5-5-5-5-5-5-5--5-5-5-5-5-5-7-7-7-7-7-7-7h8/2-|         

D----------------------------|          
A----------------------------|          
F----------------------------|          
C--2-2-0-2-2-0-2-2-0-2-2-0/5-|          
G--2-2-0-2-2-0-2-2-0-2-2-0/5-|          
C--2-2-0-2-2-0-2-2-0-2-2-0/5-|

(x1)
D----------------------------------------------|          
A----------------------------------------------|        
F----------------------------------------------|        
C--5-5-5-5-5-5-5-5-5-5-5-5-5-7-7-7-7-7-7-7h8/2-|        
G--5-5-5-5-5-5-5-5-5-5-5-5-5-7-7-7-7-7-7-7h8/2-|        
C--5-5-5-5-5-5-5-5-5-5-5-5-5-7-7-7-7-7-7-7h8/2-|                  

D--------------------------------|          
A--------------------------------|          
F--------------------------------|    
C--2222-0-2222-0-2222-0-2222-0/5-|          
G--2222-0-2222-0-2222-0-2222-0/5-|          
C--2222-0-2222-0-2222-0-2222-0/5-| 
   PMPM   PMPM   PMPM   PMPM

(x2)
D-----------------------------------------------|         
A-----------------------------------------------|        
F-----------------------------------------------|        
C--5-5-5-5-5-5-5--5-5-5-5-5-5-7-7-7-7-7-7-7h8/2-|        
G--5-5-5-5-5-5-5--5-5-5-5-5-5-7-7-7-7-7-7-7h8/2-|        
C--5-5-5-5-5-5-5--5-5-5-5-5-5-7-7-7-7-7-7-7h8/2-|         

D----------------------------|          
A----------------------------|          
F----------------------------|          
C--2-2-0-2-2-0-2-2-0-2-2-0/5-|          
G--2-2-0-2-2-0-2-2-0-2-2-0/5-|          
C--2-2-0-2-2-0-2-2-0-2-2-0/5-|

END
Tap to rate this tab
# A B C D E F G H I J K L M N O P Q R S T U V W X Y Z