Song name
# A B C D E F G H I J K L M N O P Q R S T U V W X Y Z

Elizabeth Cotten - Freight Train tab

Help us improve GuitareTab! Take a short survey!
Nitro's Freight Train Solo Tab  -    (793.48KB MP3)
m.1                                     m.2
----------18----------------18--------|-----------18-20---|
-18-20-22----22-20-18-20-22----22-20--|--18-20-22---------|
--------------------------------------|-------------------|
--------------------------------------|-------------------|
--------------------------------------|-------------------|
--------------------------------------|-------------------|
 d  u  d  u  d  u  d  u  d  u  d  u      d  u  d  u  d
                                    m.3
-22-20-18----20-18-------18--------|-----------18-20-22---|
----------22-------22-20----22-20--|--18-20-22------------|
-----------------------------------|----------------------|
-----------------------------------|----------------------|
-----------------------------------|----------------------|
-----------------------------------|----------------------|
 u  d  u  d  u  d  u  d  u  d  u      d  u  d  u  d  u
                 m.4                                m.5
-20-18----------|----------------------------------|-------|
-------22-20-18-|----------------------------------|-18-20-|
----------------|-19-17-15----------------15-17-19-|-------|
----------------|----------19-17-15-17-19----------|-------|
----------------|----------------------------------|-------|
----------------|----------------------------------|-------|
 d  u  d  u  d    u  d  u  d  u  d  u  d  u  d  u    d  u
                      m.6                       m.7
----18-20-22-/\/\----|-------18-18-18----------|-18-18-23-|
-22------------------|-18-20----------20-18-20-|----------|
---------------------|-------------------------|----------|
---------------------|-------------------------|----------|
---------------------|-------------------------|----------|
---------------------|-------------------------|----------|
 d  u  d  u            d  u  d  u  d  u  d  u    d  u  d
                             m.8
-18-20-18-18-18-18----------|-18-18-18-20-23-20-18-18-18--|
-------------------20-18-20-|-----------------------------|
----------------------------|-----------------------------|
----------------------------|-----------------------------|
----------------------------|-----------------------------|
----------------------------|-----------------------------|
 u  d  u  d  u  d  u  d  u    d  u  d  u  d  u  d  u  d
           m.9                                m.10
----------|-18-18-18-20-23-20-18-18-18-------|------------|
-20-18-20-|----------------------------22-20-|-18-20-22---|
----------|----------------------------------|------------|
----------|----------------------------------|------------|
----------|----------------------------------|------------|
----------|----------------------------------|------------|
 u  d  u    d  u  d  u  d  u  d  u  d  u  d    u  d  u
                          m.11
-18-20-22-20-18----------|--------------------------------|
----------------22-20-18-|--------------------------------|
-------------------------|-19-17-15----------------15-17--|
-------------------------|----------19-17-15-17-19--------|
-------------------------|--------------------------------|
-------------------------|--------------------------------|
 d  u  d  u  d  u  d  u    d  u  d  u  d  u  d  u  d  u
                    m.12
-------------------|----------------------------------|----|
-------------------|----------------------------------|----|
-19-17-15----------|----------------------------------|----|
----------19-17-15-|----------------------------------|----|
-------------------|-17-15-13----------------13-15-17-|----|
-------------------|----------17-15-13-15-17----------|----|
 d  u  d  u  d  u    d  u  d  u  d  u  d  u  d  u  d
m.13                        m.14
---------------------------|-------------------------------|
---------------------------|----------15-18-17-16-15----15-|
----------14-15-17-/\/\/\--|-14-15-18----------------18----|
-14-15-17------------------|-------------------------------|
---------------------------|-------------------------------|
---------------------------|-------------------------------|
 d  u  d  u  d  u            d  u  d  u  d  u  d  u  d  u
                 m.15                m.16
----------------|----------15-17-18-|----------17-18-20--|
----------------|-15-17-18----------|-17-18-20-----------|
-18-17-15-17-18-|-------------------|--------------------|
----------------|-------------------|--------------------|
----------------|-------------------|--------------------|
----------------|-------------------|--------------------|
 d  u  d  u  d    u  d  u  d  u  d    u  d  u  d  u  d
m.17                        m.18
----------18-20-22-(25)----|-----------------------------|
-18-20-22------------------|-6--/--15-18-(20)-\/\/-------|
---------------------------|-----------------------------|
---------------------------|-----------------------------|
---------------------------|-----------------------------|
---------------------------|-----------------------------|
 u  d  u  d  u  d            d     d  u
m.19                m.20
-------------------|-------------------------------------|
----------14-------|----------14-15-18-15-14----14-------|
-14-15-18----18-15-|-14-15-18----------------18----18-15-|
-------------------|-------------------------------------|
-------------------|-------------------------------------|
-------------------|-------------------------------------|
 d  u  d  u  d  u    d  u  d  u  d  u  d  u  d  u  d  u
m.21                            m.22             m.23
-------------------------------|----------------|----------|
----------14-15-17-15-14----14-|----------------|----------|
-14-15-18----------------17----|-17-15-14----14-|----------|
-------------------------------|----------17----|-17-15-14-|
-------------------------------|----------------|----------|
-------------------------------|----------------|----------|
 d  u  d  u  d  u  d  u  d  u    d  u  d  u  d    u  d  u
                      m.24               m.25
---------------------|------------------|------------------|
---------------------|----------15------|----------16------|
-------14-15-17-/\/\-|-15-17-18---18-17-|-16-18-19---19-18-|
-15-17---------------|------------------|------------------|
---------------------|------------------|------------------|
---------------------|------------------|------------------|
 d  u  d  u  d         d  u  d  u  d  u   d  u  d  u  d  u
  m.26                            m.27
-|----------------17-18-20-18-17-|-------------------|----|
-|-------17-18-20----------------|-20-18-17-20-18-17-|----|
-|-17-19-------------------------|-------------------|----|
-|-------------------------------|-------------------|----|
-|-------------------------------|-------------------|----|
-|-------------------------------|-------------------|----|
   d  u  d  u  d  u  d  u  d  u    d  u  d  u  d  u
m.28                  m.29
---------17-20-18-17-|-------------------------------------|
------18-------------|-20-19-18-17---18-17-----------------|
---19----------------|------------19------19-17-19-17-/\/\-|
20-------------------|-------------------------------------|
---------------------|-------------------------------------|
---------------------|-------------------------------------|
d  d  d  d  u  d  u    d  u  d  u d  u  d u  d  u  d
 m.30                                  m.31
|----------------17-22p17-------------|----------------18-|
|-------------18----------18----------|-------------19----|
|:---------19----------------19-------|----------20-------|
|-------19----------------------19----|-------20----------|
|-17h20----------------------------20-|-18h21-------------|
|-------------------------------------|-------------------|
  d - - - - - - -|  u - - - - - - -|    d - - - - - - -|
                    m.32
-23p18-------------|----------------19-24p19-------------|
-------19----------|-------------20----------20----------|
----------20-------|----------21----------------21-------|
-------------20----|-------21----------------------21----|
----------------21-|-19p22----------------------------22-|
-------------------|-------------------------------------|
 u - - - - - - -|    d - - - - - - -|  u - - - - - - -|
 m.33
|----------------18-23p18--------------|------------------|
|-------------19----------19-----------|--repeat-measures-|
|----------20----------------20-------:|---30-through-33--|
|-------20----------------------20-----|----three-more----|
|-18h21----------------------------21--|-------times------|
|--------------------------------------|------------------|
  d - - - - - - -|  u - - - - - - -|
 m.34                                  m.35
|----------------17-22p17-------------|----------------17-|
|-------------18----------18----------|-------------18----|
|----------19----------------19-------|----------19-------|
|-------19----------------------19----|-------19----------|
|-17h20----------------------------20-|-17h20-------------|
|-------------------------------------|-------------------|
  d - - - - - - -|  u - - - - - - -|    d - - - - - - -|
                    m.36
-22p17-------------|--------------------------------------|
-------18----------|--------------------------------------|
----------19-------|--------------------------------------|
-------------19----|-17--/\/\/\---------------------------|
----------------20-|--------------------------------------|
-------------------|--------------------------------------|
 u - - - - - - -|    d
Related for Freight Train tab