Song name
# A B C D E F G H I J K L M N O P Q R S T U V W X Y Z

Elvis Presley - Hound Dog tab

Song: Hound Dog
Album: The Real Elvis
Year: 1956

E|-----------------------------------|-----------------------------------|--|
B|-----------------------------------|-----------------------------------|--|
G|-----------------------------------|-----------------------------------|--|
D|-----------1--3--1-----------------|-----------1--3--1-----------------|--|
A|-----1--3-----------3--1-----1--3--|-----1--3-----------3--1-----1--3--|--|
E|--3-----------------------3--------|--3-----------------------3--------|--|

E|----------------------------------8--11b13--8--------------------|
B|---------------------------8--10---------------------------------|
G|-------------------5--8/9----------------------------------------|
D|-------------5--7------------------------------------------------|
A|-------5--7------------------------------------------------------|
E|--7/8------------------------------------------------------------|

E|-------------------------------------------------------8--|------|
B|--11--10--8------8------------------------------8--10-----|------|
G|-------------11-----11p10--8-------------8--10------------|------|
D|------------------------------10--8--10-------------------|------|
A|----------------------------------------------------------|------|
E|----------------------------------------------------------|------|

E|--8--8--8--8--11--|--8----------------|--11--8--------|-----|
B|--8--8--8--8--11--|-----10--8--10--8--|--11--8--8--8--|-----|
G|--8--8--8--8------|-----10--8--10--8--|---------8--8--|-----|
D|------------------|-------------------|---------------|-----|
A|------------------|-------------------|---------------|-----|
E|------------------|-------------------|---------------|-----|

E|--------------------|-----------------|-----|
B|--------------------|-----------------|-----|
G|-----------5--------|--5--------5-----|-----|
D|--------------7--5--|-----7--5-----7--|-----|
A|-----5--7-----------|-----------------|-----|
E|--8-----------------|-----------------|-----|
Tap to rate this tab
# A B C D E F G H I J K L M N O P Q R S T U V W X Y Z