Song name
# A B C D E F G H I J K L M N O P Q R S T U V W X Y Z

Emancipator - Maps tab

guitar theme

e|--------------------4------------------------------|
B|----------4------------7--5--4---------------------|
G|---6---6----4--6----------------4------------------|
D|-----6---------------------------------------------|
A|---------------------------------------------------|
E|---------------------------------------------------|

break

    C#m          H             A           H
e|----------------------------------------------------------|
B|-------4b5b4--------4b5b4p0------4b5b4-------4p5p4--------|
G|----------------------------------------------------4p6---|
D|----------------------------------------------------------|
A|---4-4----------2-2----------0-0---------2-2--------------|
E|----------------------------------------------------------|

guitar solo

e|---------------------------------------------------|
B|-------------5----7---5-7-7b9-(9)b7-5--------------|
G|---------4-6---6-----------------------6-----------|
D|----4-6--------------------------------------------|
A|---------------------------------------------------|
E|---------------------------------------------------|

e|---------------------------------------------------|
B|-------------5------5--4-5-4-----------------------|
G|---------4-6----6----------------------------------|
D|----4-6--------------------------------------------|
A|---------------------------------------------------|
E|---------------------------------------------------|

Listen to the (amazing) song so you can better hear when to bend and pull.

http://www.youtube.com/watch?feature=player_embedded&v=k7Z7USWo2Lk#!
Tap to rate this tab
# A B C D E F G H I J K L M N O P Q R S T U V W X Y Z