Song name
# A B C D E F G H I J K L M N O P Q R S T U V W X Y Z

Emanuel - Cottonmouth tab

This tab is only for the rythm guitar for this song.
both guitars are tabbed out.

Tune your guitar to: C#, G#, C#, F#, A#, D#

Intro:

--------------------------------------------------------------------|
--------------------------------------------------------------------|
--------------------------------------------------------------------|
-0-0-0-0-0-0-0-0--3-3-3-3-3-3-3-3--8-8-8-8-8-8-8-8-8-8-8-8-8-8-8-8--|
-0-0-0-0-0-0-0-0--3-3-3-3-3-3-3-3--8-8-8-8-8-8-8-8-8-8-8-8-8-8-8-8--|
-0-0-0-0-0-0-0-0--3-3-3-3-3-3-3-3--8-8-8-8-8-8-8-8-8-8-8-8-8-8-8-8--|

-----------------------------------------------|
-----------------------------------------------|
-----------------------------------------------|
-0-0-0-0-0-0-0-0--3-3-3-3-3-3-3-3--8~--3~--7~--|
-0-0-0-0-0-0-0-0--3-3-3-3-3-3-3-3--8~--3~--7~--|
-0-0-0-0-0-0-0-0--3-3-3-3-3-3-3-3--8~--3~--7~--|

Pre Verse: Guitar I

----------------------------      |-----|
----------------------------      |-----|
----------------------------      |-----|
-0-0-0-0-0-0-0-0--8-8-8-8-8-      |-0~--|
-0-0-0-0-0-0-0-0--8-8-8-8-8-      |-0~--|
-0-0-0-0-0-0-0-0--8-8-8-8-8- X3   |-0~--|

Pre Verse: Guitar II

---------------------------------     |-----|
---------------------------------     |-----|
-7-7-7-7-7-7-7-7--10-10-10-10-10-     |-----|
-X-X-X-X-X-X-X-X--X--X--X--X--X--     |-0~--|
-5-5-5-5-5-5-5-5--8--8--8--8--8--     |-0~--|
--------------------------------- X2  |-0~--|

Verse: Guitar I
(Palm Muted)
*Notice this doesn't happen everytime they play the verse.
*This might look wrong, but listen to the song carefully (you'll see it's right).

--------------------------------------------------------------------|
--------------------------------------------------------------------|
--------------------------------------------------------------------|
-0-0-0-0-0-0-0-0--3-3-3-3-3-3-3-3--8-8-8-8-8-8-8-8-8-8-8-8-8-8-8-8--|
-0-0-0-0-0-0-0-0--3-3-3-3-3-3-3-3--8-8-8-8-8-8-8-8-8-8-8-8-8-8-8-8--|
-0-0-0-0-0-0-0-0--3-3-3-3-3-3-3-3--8-8-8-8-8-8-8-8-8-8-8-8-8-8-8-8--|

Verse: Guitar II
*They use an effect for this part, but i'm not sure which one it is.
*(#~b) means to hold the note a little second and then bend.

-------|------------|---------|  |-------------------------------------|
--------|-----8--11--|---------|  |------------------------------------|
-9~b----|-9~b--------|-9~b-----|  |------------------------------------|
------7-|------------|-----7---|  |-8-8-8-8-8-8-8-8-8-8-8-8-8-8-8-8----|
--------|------------|---------|  |-8-8-8-8-8-8-8-8-8-8-8-8-8-8-8-8----|
--------|------------|---------|  |-8-8-8-8-8-8-8-8-8-8-8-8-8-8-8-8----|

Pre Chorus:

-------------------------------------------|
-------------------------------------------|
-------------------------------------------|
-0-0-0--3-3-3--1-1-1--4-4-4--3-3-3--1-1-1--|
-0-0-0--3-3-3--1-1-1--4-4-4--3-3-3--1-1-1--|
-0-0-0--3-3-3--1-1-1--4-4-4--3-3-3--1-1-1--| X2

Chorus:
*It might sound wrong, but again, it's right.

---------------------------------------------------------------------|
---------------------------------------------------------------------|
------------------3-3-3-3-3-3-3-3------------------------------------|
-0-0-0-0-0-0-0-0--3-3-3-3-3-3-3-3--3-3-3-3-3-3-3-3--7-7-7-7-7-7-7-7--|
-0-0-0-0-0-0-0-0--1-1-1-1-1-1-1-1--3-3-3-3-3-3-3-3--7-7-7-7-7-7-7-7--|
-0-0-0-0-0-0-0-0-------------------3-3-3-3-3-3-3-3--7-7-7-7-7-7-7-7--|

-----------------------------------------------|
-----------------------------------------------|
-----------------------------------------------|
-0-0-0-0-0-0-0-0--3-3-3-3-3-3-3-3--8~--3~--7~--|
-0-0-0-0-0-0-0-0--3-3-3-3-3-3-3-3--8~--3~--7~--|
-0-0-0-0-0-0-0-0--3-3-3-3-3-3-3-3--8~--3~--7~--|  X2

Breakdown:

-----------------------------------     |------------------|
-----------------------------------     |------------------|
------------------6-6-6-6-3-3-3-3--     |------------------|
-3-3-3-3-3-3-3-3--6-6-6-6-3-3-3-3--     |-3-3-3-3-3-3-3-3--|
-3-3-3-3-3-3-3-3--4-4-4-4-1-1-1-1--     |-3-3-3-3-3-3-3-3--|
-3-3-3-3-3-3-3-3------------------- X3  |-3-3-3-3-3-3-3-3--|

-------------------------------------------|
-------------------------------------------|
-------------------------------------------|
-0-0-0--3-3-3--1-1-1--4-4-4--3-3-3--1-1-1--|
-0-0-0--3-3-3--1-1-1--4-4-4--3-3-3--1-1-1--|
-0-0-0--3-3-3--1-1-1--4-4-4--3-3-3--1-1-1--| X3

------------------------------------|
------------------------------------|
------------------------------------|
-0-0-0--3-3-3--1-1-1--4-4-4--3-3-3--|
-0-0-0--3-3-3--1-1-1--4-4-4--3-3-3--|
-0-0-0--3-3-3--1-1-1--4-4-4--3-3-3--|

Outro: Guitar I

----------------------------|
----------------------------|
----------------------------|
-0-0-0-0-0-0-0-0--8-8-8-8-8-|
-0-0-0-0-0-0-0-0--8-8-8-8-8-|
-0-0-0-0-0-0-0-0--8-8-8-8-8-| X3

Outro: Guitar II

---------------------------------|
---------------------------------|
-7-7-7-7-7-7-7-7--10-10-10-10-10-|
-X-X-X-X-X-X-X-X--X--X--X--X--X--|
-5-5-5-5-5-5-5-5--8--8--8--8--8--|
---------------------------------| X3


Info:

There's times where they play this again (Like after the second chorus before the
and also in the third chorus to get to the outro).
Look for those parts and it. and play it. =]
-------------|
-------------|
-------------|
-8~--3~--7~--|
-8~--3~--7~--|
-8~--3~--7~--|

There's times where they play this again (Like after the breakdown to get back in the
(third chorus)).
Look for thoe parts and play it. =]
-------------------------------------------|
-------------------------------------------|
-------------------------------------------|
-0-0-0--3-3-3--1-1-1--4-4-4--3-3-3--1-1-1--|
-0-0-0--3-3-3--1-1-1--4-4-4--3-3-3--1-1-1--|
-0-0-0--3-3-3--1-1-1--4-4-4--3-3-3--1-1-1--|

Have Fun =]
Tap to rate this tab
 
# A B C D E F G H I J K L M N O P Q R S T U V W X Y Z