Song name
# A B C D E F G H I J K L M N O P Q R S T U V W X Y Z

Embrace - Celebrate tab

This is the intro for Celebrate.
(piano part)

(This part is played in parts throughout the song) 

e]------------------------]       
B]------------------------]
G]------------11-8-8------]
D]----11-9-11-------------]  x24 
A]------------------------]
E]------------------------]     

e]---------------]
B]---------------]
G]--16-15-11-8---]
D]---------------]
A]---------------]
E]---------------]


guitar with distortion
e]------------------------]
B]------------------------]
G]---11-9-8-6-9-8-6-4-----]
D]------------------------]
A]------------------------]
E]------------------------]
Tap to rate this tab
# A B C D E F G H I J K L M N O P Q R S T U V W X Y Z