Song name
# A B C D E F G H I J K L M N O P Q R S T U V W X Y Z

Eminem - No Apologies tab

Help us improve GuitareTab! Take a short survey!
E-------------------------------------------------------------|
A-------------------------------------------------------------|
D-------------------------------------------------------------|
G-------------------------------------------------------------|
B-----------10-s-8-----------10-h-11-----------10-s-8---------|
e--13-12-10---------13-12-10----------13-12-10----------------|

E---------------------------------|
A---------------------------------|
D---------------------------------|
G---------------------------------|
B-----------10----------10--------|
e--13-12-10----13-12-10-----------|

Tabbed By Rushdown

I made this my self and its 100% correct just repeat throughout the song
Related for No Apologies tab