Song name
# A B C D E F G H I J K L M N O P Q R S T U V W X Y Z

Eminem - 8 Mile tab

E---------------------------------------------------------------------|
A---------------------------------------------------------------------|
D---------------------------------------------------------------------|
G--2-----------2-----------2-----------2------------------------------|
B-----5--3--1-----5--3--1-----5--3--1-----5--3--5--6--3--5--1--3--0---|
e---------------------------------------------------------------------|

Just reapeat this through the song now the next bit that goes over the top


E----------------------------------------------------------------------|
A----------------------------------------------------------------------|
D----------------------------------------------------------------------|
G----------------------------------------------------------------------|
B-----------------------------------15--13--15--18--17--18--15--18--18-|
e--17--12--17---17--12--17--17--12-------------------------------------|


E---------------------------------------------|
A---------------------------------------------|
D---------------------------------------------|
G---------------------------------------------|
B--17--13--15--12--13--10---------------------|
e---------------------------------------------|


And thats it 100% done 100% correct it took me a while to work this out but i got there 
the end Enjoy!!!!


Tabbed by Rushdown
Tap to rate this tab
# A B C D E F G H I J K L M N O P Q R S T U V W X Y Z