Song name
# A B C D E F G H I J K L M N O P Q R S T U V W X Y Z

Engerica - Arsehole tab

Engerica- Arsehole

E----------------------------|
B----------------------------|
G-----9-----9-8-------9---8--|   Intro
D-7---9--7--9-8-x4-7--9-7-8--|
A-7---7--7--7-6----7--7-7-6--|
E-5------5---------5----5----|

E-----------------------------------|
B--------9999-----------------------|
G--------9999-----------------------|
D---77---9999---X 3---101010-999----|
A---77---7777---------101010-999----|    verse riff
E---55----------------8-8-8--777----|

E------------------------------------|
B------------------------------------|
G---99999999888--8999999988----------|
D---99999999888108999999988--77--X2--|        Chorus riff
A---77777777666106777777766--77------|
E---------------8------------55------|

E---------------------------------|
B---------------------------------|
G---------------------------------|
D----7--xxx---------101010--999---|         2nd Verse riff
A----7--xxx- x3-----101010--999---|
E----5--xxx---------8-8-8---777---|

E-------------|
B-------------|
G-----99--8---|
D-----99--8---|     Pre solo riff
A-----77--6---|
E-------------|


E-------------------------------------------------------------------------|
B-------------------------------------------------------------------------|
G-14141414-16161616-17171717-16161616-19191919-17171717-16161616-13131313-|
D-14141414-16161616-17171717-16161616-19191919-17171717-16161616-13131313-|
A-12121212-14141414-15151515-14141414-17171717-15151515-14141414-11111111-|
E-------------------------------------------------------------------------|
 x 2

Structure

Intro
Verse riff
chorus riff
verse riff
2nd verse riff
verse riff
chorus riff
pre solo riff
verse riff
solo riff
chorus riff
verse  riff
Tap to rate this tab
 
# A B C D E F G H I J K L M N O P Q R S T U V W X Y Z