Song name
# A B C D E F G H I J K L M N O P Q R S T U V W X Y Z

Era - Ameno tab

Help us improve GuitareTab! Take a short survey!
Cancin: Ameno
Artista: Era

Primer Solo:

1----7---6--4-----7----6-4---11-|
2-------------4-----------------|
3---------------4---------------|
4-6-----------------------------|
5-------------------------------|
6-------------------------------|

Segundo Solo:

1----------------------------------------------|
2----------------------------------------------|
3-----------9-14--13--8-8--8-9-11--9-8---------|
4-11--11..13---------------------------11-6+-6-|
5----------------------------------------------|
6----------------------------------------------|

1------------------11-14-12--11-12-11----------|
2----------------12------------------14-12--12-|
3-11..12-12-11-12------------------------------|
4----------------------------------------------|
5----------------------------------------------|
6----------------------------------------------|

1-------------------------17--16-----------------19-----------19--19------16-17-19-21---23--24-24|
2--------------------16-17--------16-16--16-17-19--19-17-16-17--------17-19----------------------|
3-16-----14-16-18--18----------------------------------------------------------------------------|
4---16-18----------------------------------------------------------------------------------------|
5------------------------------------------------------------------------------------------------|
6------------------------------------------------------------------------------------------------|

1---------------------------|
2---------------------------|
3-18------------------------|
4---16-18-16-18-16-18-14-16-|
5---------------------------|
6---------------------------|

Por Andrs Campos M.
Related for Ameno tab