Song name
# A B C D E F G H I J K L M N O P Q R S T U V W X Y Z

Ernie Halter - Lighthouse tab

LIGHTHOUSE
Performed by Ernie Halter

Standard Tuning

INTRO
e|--0--0--4--X--0----X--0----|
B|--0--0--5--4--0h2--X--0----|
G|--1--4--6--4--2----X--1----|
D|--2--4--6--4--2----X--2----|
A|--2--X--4--2--0----X--2----|
E|--0--4--X--X--X----X--0----|

CHORUS
e|--0---0---4--X----0----X--0----0---0--X-----X----X----X-----|
B|--0---0---5--4----0h2--X--0----0---0--4h5---X----4----X-----|
G|--1---4---6--4----2----X--1----1---4--4-----X----4----X-----|
D|--2---4---6--4----2----X--2----2---4--4h6---X----4----X-----|
A|--2---X---4--2----0----X--2----2---X--4-----X----2----X-----|
E|--0---4---X--X----X----X--0----0---4--X-----X----X----X-----|


e|--0---0--4---X-----0---X--0---X---0---0---X---0---0--X----X-|
B|--0---0--5---4-----0h2-X--0---X---0---0---X---0---0--X----4-|
G|--1---4--6---4-----2---X--1---X---2---1---X---2---1--X----4-|
D|--2---4--6---4-----2---X--2---X---4---2---X---4---2--X----4-|
A|--2---X--4---2-----0---X--2---X---4---2---X---4---2--X----2-|
E|--0---4--X---X-----X---X--0---X---0---0---X---0---0--X----X-|


VERSE
e|--X---X---X---0---0------1---0---X------|
B|--4---5---4---2---0------5---0---X------|
G|--3---6---4---2---1------4---2---4------|
D|--4---6---4---2---2------6---2---4------|
A|--3---4---2---0---2---6--4---0---2------|
E|--X---X---X---X---0------X---X---X------|



BRIDGE
e|--0---0--0---0---2---3--2--3---1----0---2----|
B|--0---1--0---1---1---3--1--3---0----1---2----|
G|--1---2--1---2---2---0--2--0---0----0---2----|
D|--0---2--0---2---0---0--0--0---0----2---1----|
A|--2---0--2---0---X---2--X--2---2----3---2----|
E|--0---X--0---X---X---3--X--3---3----X---X----|

e|--0--0--4----X----|
B|--0--0--5----4----|
G|--1--4--6----4----|
D|--2--4--6----4----|
A|--2--X--4----2----|
E|--0--4--X----X----|



CHORUS
E   E/G#  C#m  B      A   E
Let me   be  your lighthouse
E  E/G# C#m        B   
Let me guide your hand
E   E/G#  C#m   B      A   E
Let me   be your shelter
A/E  E    A/E  E     B
For you - For you I stand

VERSE
Cdim              C#m            B
When you feel the dark inside you
A                   E
  And the wind and waves
     B/D#         C#m
Keep pushing you down
          A
Feel the whole world
             B
Pulling you around

CHORUS
E   E/G#  C#m  B      A   E
Let me   be  your lighthouse
E  E/G# C#m        B   
Let me guide your hand
E   E/G#  C#m   B      A   E
Let me   be your shelter
A/E  E    A/E  E     B
For you - For you I stand

VERSE
Cdim              C#m            B
When you feel the dark inside you
A                   E
  And the moon and stars
     B/D#         C#m
Don't lead you nowhere
            A                     B
Feels like no one's watching up there

CHORUS
E   E/G#  C#m  B      A   E
Let me   be  your lighthouse
E  E/G# C#m        B   
Let me guide your hand
E   E/G#  C#m   B      A   E
Let me   be your shelter
A/E  E    A/E  E     B
For you - For you I stand

BRIDGE
E7               Am E7 Am
   Let me be the one
D7                 G   D7 G  
Standing when you come
G7               C   
Lay your anchor down
     B7      E
And let me wrap
E/G# C#m    B
My   arms around you

CHORUS
E   E/G#  C#m  B      A   E
Let me   be  your lighthouse
E  E/G# C#m        B   
Let me guide your hand
E   E/G#  C#m   B      A   E
Let me   be your shelter
A/E  E    A/E  E     B
For you - For you I stand
A           B
For you I stand
A           E   E/G#  C#m  B  A  E
For you I stand
Tap to rate this tab
 
# A B C D E F G H I J K L M N O P Q R S T U V W X Y Z