Song name
# A B C D E F G H I J K L M N O P Q R S T U V W X Y Z

Escape The Fate - Makeup tab

-----------------------------------------------------------------------------
			     SONG NAME - Band Name
-----------------------------------------------------------------------------

Tabbed by: rawki!!!


Tuning: drop c

d|--------------------------------------------------------------------------|
a|--------------------------------------------------------------------------|
f|--------------------------------------------------------------------------|
c|--9999--5555--4/55--000000000000------------------------------------------|
g|--9999--5555--4/55--000000000000------------------------------------------|
c|--9999--5555--4/55--000000000000------------------------------------------|
********************************or*******************************************

d|--------------------------------------------------------------------------|
a|--------------------------------------------------------------------------|
f|--11-11-11-11--7777--6/77--333333333333-----------------------------------|
c|--x--x--x--x---xxxx--x-xx--xxxxxxxxxxxx-----------------------------------|
g|--9--9--9--9---5555--4/55--000000000000-----------------------------------|
c|--------------------------------------------------------------------------|


| /  slide up
| \  slide down
| h  hammer-on
| p  pull-off
| ~  vibrato
| +  harmonic
| x  Mute note
============================================================================
Tap to rate this tab
# A B C D E F G H I J K L M N O P Q R S T U V W X Y Z