Song name
# A B C D E F G H I J K L M N O P Q R S T U V W X Y Z

Escape The Fate - When I Go Out I Want To Go Out On A Chariot Of Fire tab

When I Go Out, I Want To Go Out On A Chariot Of Fire               
Escape The Fate




                     PM                   PM PM PM PM PM PM  
     H.           E  S  S    H.           T  T  S  T  T  S   
D||-----------------------|---------------------------------|
A||-----------------------|---------------------------------|
F||-----------------------|---------------------------------|
C||--2------------L--2----|--2------------------------------|
G||--2------------L--2----|--2------------2--2--2--2--2--2--|
C||--2------------L--2----|--2------------2--2--2--2--2--2--|


                                                PM PM PM    
  S H.           E.     S S S S S S S S S S S S S  S  S  S  
---------------------|-------------------------------------|
---------------------|-------------------------------------|
---------------------|--9-9-9-9-9-9-9-9-9-9-9-9------------|
--2------------------|--x-x-x-x-x-x-x-x-x-x-x-x-x--x--x--2-|
--2------------------|--7-7-7-7-7-7-7-7-7-7-7-7-x--x--x--2-|
--2------------------|--------------------------x--x--x--2-|


     PM PM PM PM PM PM PM PM PM PM   PM PM    
  E  S  S  S  S  S  S  S  S  S  S  S S  S  S  
---------------------------------------------|
---------------------------------------------|
---------------------------------------------|
--L--------------------------------2-------2-|
--L--2--2--2--2--2--2--2--2--2--2--2-2--2--2-|
--L--2--2--2--2--2--2--2--2--2--2--2-2--2--2-|


     PM PM PM PM PM PM   PM PM   PM PM   PM  
  E  S  S  S  S  S  S  S S  S  S S  S  S S   
--------------------------------------------|
--------------------------------------------|
--------------------------------------------|
--L--------------------2-------2-------2----|
--L--2--2--2--2--2--2--2-2--2--2-2--2--2-2--|
--L--2--2--2--2--2--2--2-2--2--2-2--2--2-2--|


       PM PM PM PM PM PM PM PM PM PM    PM PM    
   E   S  S  S  S  S  S  S  S  S  S  S  S  S  S  
------------------------------------------------|
------------------------------------------------|
------------------------------------------------|
--10--------------------------------10-------10-|
--10--10-10-10-10-10-10-10-10-10-10-10-10-10-10-|
--10--10-10-10-10-10-10-10-10-10-10-10-10-10-10-|


      PM PM PM PM PM PM    PM PM    PM PM    PM 
  E   S  S  S  S  S  S  S  S  S  S  S  S  S  S  
-----------------------------------------------|
-----------------------------------------------|
-----------------------------------------------|
--L--------------------10-------10-------10----|
--L--10-10-10-10-10-10-10-10-10-10-10-10-10-10-|
--L--10-10-10-10-10-10-10-10-10-10-10-10-10-10-|


     PM PM PM PM PM PM PM PM PM PM   PM PM    
  E  S  S  S  S  S  S  S  S  S  S  S S  S  S  
---------------------------------------------|
---------------------------------------------|
---------------------------------------------|
--2--------------------------------2-------2-|
--2--2--2--2--2--2--2--2--2--2--2--2-2--2--2-|
--2--2--2--2--2--2--2--2--2--2--2--2-2--2--2-|


     PM PM PM PM PM PM   PM PM   PM PM   PM  
  E  S  S  S  S  S  S  S S  S  S S  S  S S   
--------------------------------------------|
--------------------------------------------|
--------------------------------------------|
--L--------------------2-------2-------2----|
--L--2--2--2--2--2--2--2-2--2--2-2--2--2-2--|
--L--2--2--2--2--2--2--2-2--2--2-2--2--2-2--|


       PM PM PM PM PM PM PM PM PM PM    PM PM    
   E   S  S  S  S  S  S  S  S  S  S  S  S  S  S  
------------------------------------------------|
------------------------------------------------|
------------------------------------------------|
--10--------------------------------10-------10-|
--10--10-10-10-10-10-10-10-10-10-10-10-10-10-10-|
--10--10-10-10-10-10-10-10-10-10-10-10-10-10-10-|


      PM PM PM PM PM PM                                   PM      
  E   S  S  S  S  S  S  S Q.     S     E.   S Q.     E.   S  S S  
-----------------------------------|-----------------------------|
-----------------------------------|-----------------------------|
-----------------------------------|-----------------------------|
--L--------------------10----------|--10---10---------------10---|
--L--10-10-10-10-10-10-10----------|--10---10------------10-10---|
--L--10-10-10-10-10-10-10----------|--10---10------------10-10---|


                                                   PM      
   E.   S Q.     E.   S   S  S    E.  S Q.     E.  S  S S  
-------------------------------|--------------------------|
-------------------------------|--------------------------|
---------------------12s-11s-9-|--------------------------|
--10---10-------------x---x--x-|--2---2---------------2---|
--10---10------------10s--9s-7-|--2---2------------2--2---|
--10---10----------------------|--2---2------------2--2---|


                                                          PM      
  E.  S Q    S  S  S  S  S  S  S S     E.   S Q.     E.   S  S S  
-----------------------------------|-----------------------------|
-----------------------------------|-----------------------------|
---------------12-16-16-16-16-14---|-----------------------------|
--0---0---------x--x--x--x--x--x---|--10---10---------------10---|
--0---0--------10-14-14-14-14-12---|--10---10------------10-10---|
--0---0----------------------------|--10---10------------10-10---|


                                                   PM      
   E.   S Q.     E.   S   S  S    E.  S Q.     E.  S  S S  
-------------------------------|--------------------------|
-------------------------------|--------------------------|
---------------------12s-11s-9-|--------------------------|
--10---10-------------x---x--x-|--2---2---------------2---|
--10---10------------10s--9s-7-|--2---2------------2--2---|
--10---10----------------------|--2---2------------2--2---|


  E.  S Q    S S S S S S S S    S S S S S S S S S S S S S S S S  
-----------------------------|----------------------------------|
-----------------------------|----------------------------------|
-----------------------------|--5-5-5-5-5-5-5-5-5-5-5-5-5-5-5-5-|
--0---0----------------------|--5-5-5-5-5-5-5-5-5-5-5-5-5-5-5-5-|
--0---0----------------------|--3-3-3-3-3-3-3-3-3-3-3-3-3-3-3-3-|
--0---0----------------------|----------------------------------|


  S S S S S S S S S S S S S S S S    S S S S S S S S S S S S S S S S  
----------------------------------|----------------------------------|
----------------------------------|----------------------------------|
--5-5-5-5-5-5-5-5-5-5-5-5-5-5-5-5-|--7-7-7-7-7-7-7-7-7-7-7-7-7-7-7-7-|
--5-5-5-5-5-5-5-5-5-5-5-5-5-5-5-5-|--7-7-7-7-7-7-7-7-7-7-7-7-7-7-7-7-|
--3-3-3-3-3-3-3-3-3-3-3-3-3-3-3-3-|--5-5-5-5-5-5-5-5-5-5-5-5-5-5-5-5-|
----------------------------------|----------------------------------|


                          PM PM PM                                      
  S S S S S S S S S S S S S  S  S  S    E  S S S S S S S S S S S S S S  
-------------------------------------|---------------------------------|
-------------------------------------|---------------------------------|
--7-7-7-7-7-7-7-7-7-7-7-7------------|---------------------------------|
--7-7-7-7-7-7-7-7-7-7-7-7----------5-|--L--5-5-5-5-5-5-5-5-5-5-5-5-5-5-|
--5-5-5-5-5-5-5-5-5-5-5-5-0--0--0--5-|--L--5-5-5-5-5-5-5-5-5-5-5-5-5-5-|
--------------------------0--0--0--5-|--L--5-5-5-5-5-5-5-5-5-5-5-5-5-5-|


  S S S S S S S S S S S S S S S S    S S S S S S S S S S S S S S S S  
----------------------------------|----------------------------------|
----------------------------------|----------------------------------|
----------------------------------|----------------------------------|
--5-5-5-5-5-5-5-5-5-5-5-5-5-5-5-5-|--2-2-2-2-2-2-2-2-2-2-2-2-2-2-2-2-|
--5-5-5-5-5-5-5-5-5-5-5-5-5-5-5-5-|--2-2-2-2-2-2-2-2-2-2-2-2-2-2-2-2-|
--5-5-5-5-5-5-5-5-5-5-5-5-5-5-5-5-|--2-2-2-2-2-2-2-2-2-2-2-2-2-2-2-2-|


  S S S S S S S S S S S S S S S S    S S S S S S S S S S S S S S S S  
----------------------------------|----------------------------------|
----------------------------------|----------------------------------|
----------------------------------|--5-5-5-5-5-5-5-5-5-5-5-5-5-5-5-5-|
--2-2-2-2-2-2-2-2-2-2-2-2-2-2-2-2-|--5-5-5-5-5-5-5-5-5-5-5-5-5-5-5-5-|
--2-2-2-2-2-2-2-2-2-2-2-2-2-2-2-2-|--3-3-3-3-3-3-3-3-3-3-3-3-3-3-3-3-|
--2-2-2-2-2-2-2-2-2-2-2-2-2-2-2-2-|----------------------------------|


  S S S S S S S S S S S S S S S S    S S S S S S S S S S S S S S S S  
----------------------------------|----------------------------------|
----------------------------------|----------------------------------|
--5-5-5-5-5-5-5-5-5-5-5-5-5-5-5-5-|--7-7-7-7-7-7-7-7-7-7-7-7-7-7-7-7-|
--5-5-5-5-5-5-5-5-5-5-5-5-5-5-5-5-|--7-7-7-7-7-7-7-7-7-7-7-7-7-7-7-7-|
--3-3-3-3-3-3-3-3-3-3-3-3-3-3-3-3-|--5-5-5-5-5-5-5-5-5-5-5-5-5-5-5-5-|
----------------------------------|----------------------------------|


                          PM PM PM PM                        PM      
  S S S S S S S S S S S S S  S  S  S      E.   S Q.     E.   S  S S  
--------------------------------------|-----------------------------|
--------------------------------------|-----------------------------|
--7-7-7-7-7-7-7-7-7-7-7-7-------------|-----------------------------|
--7-7-7-7-7-7-7-7-7-7-7-7-------------|--10---10---------------10---|
--5-5-5-5-5-5-5-5-5-5-5-5-0--0--0--0--|--10---10------------10-10---|
--------------------------0--0--0--0--|--10---10------------10-10---|


                                                   PM      
   E.   S Q.     E.   S   S  S    E.  S Q.     E.  S  S S  
-------------------------------|--------------------------|
-------------------------------|--------------------------|
---------------------12s-11s-9-|--------------------------|
--10---10-------------x---x--x-|--2---2---------------2---|
--10---10------------10s--9s-7-|--2---2------------2--2---|
--10---10----------------------|--2---2------------2--2---|


                                                          PM      
  E.  S Q    S  S  S  S  S  S  S S     E.   S Q.     E.   S  S S  
-----------------------------------|-----------------------------|
-----------------------------------|-----------------------------|
---------------12-16-16-16-16-14---|-----------------------------|
--0---0---------x--x--x--x--x--x---|--10---10---------------10---|
--0---0--------10-14-14-14-14-12---|--10---10------------10-10---|
--0---0----------------------------|--10---10------------10-10---|


                                                   PM      
   E.   S Q.     E.   S   S  S    E.  S Q.     E.  S  S S  
-------------------------------|--------------------------|
-------------------------------|--------------------------|
---------------------12s-11s-9-|--------------------------|
--10---10-------------x---x--x-|--2---2---------------2---|
--10---10------------10s--9s-7-|--2---2------------2--2---|
--10---10----------------------|--2---2------------2--2---|


  E.  S Q    S S S S S S S S    S S S S S S S S S S S S S S S S  
-----------------------------|----------------------------------|
-----------------------------|----------------------------------|
-----------------------------|--5-5-5-5-5-5-5-5-5-5-5-5-5-5-5-5-|
--0---0----------------------|--5-5-5-5-5-5-5-5-5-5-5-5-5-5-5-5-|
--0---0----------------------|--3-3-3-3-3-3-3-3-3-3-3-3-3-3-3-3-|
--0---0----------------------|----------------------------------|


  S S S S S S S S S S S S S S S S    S S S S S S S S S S S S S S S S  
----------------------------------|----------------------------------|
----------------------------------|----------------------------------|
--5-5-5-5-5-5-5-5-5-5-5-5-5-5-5-5-|--7-7-7-7-7-7-7-7-7-7-7-7-7-7-7-7-|
--5-5-5-5-5-5-5-5-5-5-5-5-5-5-5-5-|--7-7-7-7-7-7-7-7-7-7-7-7-7-7-7-7-|
--3-3-3-3-3-3-3-3-3-3-3-3-3-3-3-3-|--5-5-5-5-5-5-5-5-5-5-5-5-5-5-5-5-|
----------------------------------|----------------------------------|


  E  H.           E     E  S S S S S S S S S S S S S S  
---------------------|---------------------------------|
---------------------|---------------------------------|
--7------------------|---------------------------------|
--7------------------|--5--5-5-5-5-5-5-5-5-5-5-5-5-5-5-|
--5------------------|--5--5-5-5-5-5-5-5-5-5-5-5-5-5-5-|
---------------------|--5--5-5-5-5-5-5-5-5-5-5-5-5-5-5-|


  S S S S S S S S S S S S S S S S    S S S S S S S S S S S S S S S S  
----------------------------------|----------------------------------|
----------------------------------|----------------------------------|
----------------------------------|----------------------------------|
--5-5-5-5-5-5-5-5-5-5-5-5-5-5-5-5-|--2-2-2-2-2-2-2-2-2-2-2-2-2-2-2-2-|
--5-5-5-5-5-5-5-5-5-5-5-5-5-5-5-5-|--2-2-2-2-2-2-2-2-2-2-2-2-2-2-2-2-|
--5-5-5-5-5-5-5-5-5-5-5-5-5-5-5-5-|--2-2-2-2-2-2-2-2-2-2-2-2-2-2-2-2-|


  S S S S S S S S S S S S S S S S    S S S S S S S S S S S S S S S S  
----------------------------------|----------------------------------|
----------------------------------|----------------------------------|
----------------------------------|--5-5-5-5-5-5-5-5-5-5-5-5-5-5-5-5-|
--2-2-2-2-2-2-2-2-2-2-2-2-2-2-2-2-|--5-5-5-5-5-5-5-5-5-5-5-5-5-5-5-5-|
--2-2-2-2-2-2-2-2-2-2-2-2-2-2-2-2-|--3-3-3-3-3-3-3-3-3-3-3-3-3-3-3-3-|
--2-2-2-2-2-2-2-2-2-2-2-2-2-2-2-2-|----------------------------------|


  S S S S S S S S S S S S S S S S    S S S S S S S S S S S S S S S S  
----------------------------------|----------------------------------|
----------------------------------|----------------------------------|
--5-5-5-5-5-5-5-5-5-5-5-5-5-5-5-5-|--7-7-7-7-7-7-7-7-7-7-7-7-7-7-7-7-|
--5-5-5-5-5-5-5-5-5-5-5-5-5-5-5-5-|--7-7-7-7-7-7-7-7-7-7-7-7-7-7-7-7-|
--3-3-3-3-3-3-3-3-3-3-3-3-3-3-3-3-|--5-5-5-5-5-5-5-5-5-5-5-5-5-5-5-5-|
----------------------------------|----------------------------------|


                                             PM PM PM                         
  S S S S S S S S S S S S S S S S      E  E  S  S  S   E   S  E   S  S  S  S  
----------------------------------||-----------------------------------------|
----------------------------------||-----------------------------------------|
--7-7-7-7-7-7-7-7-7-7-7-7-7-7-7-7-||*----------------------------------------|
--7-7-7-7-7-7-7-7-7-7-7-7-7-7-7-7-||*--9--9-----------10--10-10--10-10-10-10-|
--5-5-5-5-5-5-5-5-5-5-5-5-5-5-5-5-||---9--9--9--9--9--10--10-10--10-10-10-10-|
----------------------------------||---9--9--9--9--9--10--10-10--10-10-10-10-|


  S S S S S S S S  S  S  S  S  S  S  S  S  
------------------------------------------|
------------------------------------------|
------------------11-11-11-11-11-11-11-11-|
--5-5-5-5-5-5-5-5--x--x--x--x--x--x--x--x-|
--5-5-5-5-5-5-5-5--9--9--9--9--9--9--9--9-|
--5-5-5-5-5-5-5-5-------------------------|


  S S S S S S S  S S  S  S  S  S  S  S  S  
------------------------------------------|
------------------------------------------|
------------------------------------------|
--9-9-9-9-9-9-9-10-L-10-10-10-10-10-10-10-|
--9-9-9-9-9-9-9-10-L-10-10-10-10-10-10-10-|
--9-9-9-9-9-9-9-10-L-10-10-10-10-10-10-10-|


  S S S S S S S S  S  S  S  S  S  S  S  S    
-------------------------------------------||
-------------------------------------------||
------------------11-11-11-11-11-11-11-11-*||
--5-5-5-5-5-5-5-5--x--x--x--x--x--x--x--x-*||
--5-5-5-5-5-5-5-5--9--9--9--9--9--9--9--9--||
--5-5-5-5-5-5-5-5--------------------------||


  im not quite sure about the lead here                      
  W                                        W                 
----------------------------------------|-------------------|
----------------------------------------|-------------------|
----------------------------------------|-------------------|
--9-------------------------------------|--L----------------|
--9-------------------------------------|--L----------------|
--9-------------------------------------|--L----------------|


  W                   W                   W                   W                 
-------------------|-------------------|-------------------|-------------------|
-------------------|-------------------|-------------------|-------------------|
-------------------|-------------------|-------------------|-------------------|
--5----------------|--L----------------|--9----------------|--L----------------|
--5----------------|--L----------------|--9----------------|--L----------------|
--5----------------|--L----------------|--9----------------|--L----------------|


  W                   W                 
-------------------|-------------------|
-------------------|-------------------|
-------------------|-------------------|
--5----------------|--L----------------|
--5----------------|--L----------------|
--5----------------|--L----------------|


  S  S  S  S  S  S  S  S S  S  S  S  S  S  S  S  
------------------------------------------------|
------------------------------------------------|
----12-12-12-12-12-12-12---11-11-11-11-11-11-11-|
----14-14-14-14-14-14-14---14-14-14-14-14-14-14-|
------------------------------------------------|
------------------------------------------------|


  S  S  S  S  S  S  S  S S  S  S  S  S  S  S  S  
------------------------------------------------|
------------------------------------------------|
----14-14-14-14-14-14-14---12-12-12-12-12-12-12-|
----14-14-14-14-14-14-14---14-14-14-14-14-14-14-|
------------------------------------------------|
------------------------------------------------|


                                                  NH    NH    NH             
  S  S  S  S  S  S  S  S S  S  S  S  S  S E       E.    E.    E  Q    Q      
---------------------------------------------|--<>5-------------------------|
---------------------------------------------|--------<>7-------------------|
----11-11-11-11-11-11-11---12-12-12-12-12----|--------------<>7--L----------|
-----9--9--9--9--9--9--9----9--9--9--9--9----|------------------------------|
---------------------------------------------|------------------------7\----|
---------------------------------------------|------------------------7\----|


    S  S  S  S  S  S  S  S S  S  S  S  S  S  S  S  
|-------------------------------------------------|
|-------------------------------------------------|
|*----12-12-12-12-12-12-12---11-11-11-11-11-11-11-|
|*----14-14-14-14-14-14-14---14-14-14-14-14-14-14-|
|-------------------------------------------------|
|-------------------------------------------------|


  S  S  S  S  S  S  S  S S  S  S  S  S  S  S  S  
------------------------------------------------|
------------------------------------------------|
----14-14-14-14-14-14-14---12-12-12-12-12-12-12-|
----14-14-14-14-14-14-14---14-14-14-14-14-14-14-|
------------------------------------------------|
------------------------------------------------|


  S  S  S  S  S  S  S  S S  S  S  S  S  S  S  S  
------------------------------------------------|
------------------------------------------------|
----11-11-11-11-11-11-11---12-12-12-12-12-12-12-|
-----9--9--9--9--9--9--9----9--9--9--9--9--9--9-|
------------------------------------------------|
------------------------------------------------|


  S S S S S S S S S  S  S  S  S  S  S  S    
------------------------------------------||
------------------------------------------||
----7-7-7-7-7-7-7---12-12-12-12-12-12-12-*||
----9-9-9-9-9-9-9----9--9--9--9--9--9--9-*||
------------------------------------------||
------------------------------------------||


  PM PM   PM     PM   PM PM   PM     PM    
  S  S  S S  S S S  S S  S  S S  S S S  S  
------------------------------------------|
------------------------------------------|
------------------------------------------|
--------5----5-4----5-------5----5-4----5-|
--2--2----2------2----2--2----2------2----|
------------------------------------------|


  PM PM   PM     PM   PM PM   PM            
                                 |-3-|      
  S  S  S S  S S S  S S  S  S S  S S S S S  
-------------------------------------------|
-------------------------------------------|
-------------------------------------------|
--------5----5-4----5-------5----4-5-4-2-0-|
--2--2----2------2----2--2----2------------|
-------------------------------------------|


  PM PM   PM           PM PM   PM               
             |-3-|                |--3--|       
  S  S  S S  S S S S S S  S  S S  S  S  S S  S  
-----------------------------------------------|
-----------------------------------------------|
-----------------------------------------------|
--------5----4-5-4-2-0-------5----4h-5p-4-2p-0-|
-----------------------------------------------|
--2--2----2------------2--2----2---------------|


  PM PM   PM              PM PM   PM               
             |--3--|                 |--3--|       
  S  S  S S  S  S  S S  S S  S  S S  S  S  S S  S  
--------------------------------------------------|
--------------------------------------------------|
--------------------------------------------------|
--------5----4h-5p-4-2p-0-------5----4h-5p-4-2p-0-|
--------------------------------------------------|
--2--2----2---------------2--2----2---------------|


  S  S  S  S  S  S  S  S S  S  S  S  S  S  S  S  
------------------------------------------------|
------------------------------------------------|
----12-12-12-12-12-12-12---11-11-11-11-11-11-11-|
----14-14-14-14-14-14-14---14-14-14-14-14-14-14-|
------------------------------------------------|
------------------------------------------------|


  S  S  S  S  S  S  S  S S  S  S  S  S  S  S  S  
------------------------------------------------|
------------------------------------------------|
----14-14-14-14-14-14-14---12-12-12-12-12-12-12-|
----14-14-14-14-14-14-14---14-14-14-14-14-14-14-|
------------------------------------------------|
------------------------------------------------|


  S S S S S S S S S S S S S S S S    S S S S S S S S S S S S S S S S  
----------------------------------|----------------------------------|
----------------------------------|----------------------------------|
----7-7-7-7-7-7-7---7-7-7-7-7-7-7-|----7-7-7-7-7-7-7---7-7-7-7-7-7-7-|
----7-7-7-7-7-7-7---7-7-7-7-7-7-7-|----7-7-7-7-7-7-7---7-7-7-7-7-7-7-|
----5-5-5-5-5-5-5---5-5-5-5-5-5-5-|----5-5-5-5-5-5-5---5-5-5-5-5-5-5-|
----------------------------------|----------------------------------|


  no clue what the clean part is                                          
  W                                 W                   W                 
---------------------------------|-------------------|-------------------|
---------------------------------|-------------------|-------------------|
---------------------------------|-------------------|-------------------|
--5------------------------------|--L----------------|--L----------------|
--5------------------------------|--L----------------|--L----------------|
--5------------------------------|--L----------------|--L----------------|


  W                                                                             
-------------------|-------------------|-------------------|-------------------|
-------------------|-------------------|-------------------|-------------------|
-------------------|-------------------|-------------------|-------------------|
--L----------------|-------------------|-------------------|-------------------|
--L----------------|-------------------|-------------------|-------------------|
--L----------------|-------------------|-------------------|-------------------|


               PM PM PM                                      
  H.           S  S  S  S    E  S S S S S S S S S S S S S S  
--------------------------|---------------------------------|
--------------------------|---------------------------------|
--------------------------|---------------------------------|
------------------------5-|--L--5-5-5-5-5-5-5-5-5-5-5-5-5-5-|
---------------x--x--x--5-|--L--5-5-5-5-5-5-5-5-5-5-5-5-5-5-|
---------------x--x--x--5-|--L--5-5-5-5-5-5-5-5-5-5-5-5-5-5-|


  S S S S S S S S S S S S S S S S    S S S S S S S S S S S S S S S S  
----------------------------------|----------------------------------|
----------------------------------|----------------------------------|
----------------------------------|----------------------------------|
--5-5-5-5-5-5-5-5-5-5-5-5-5-5-5-5-|--2-2-2-2-2-2-2-2-2-2-2-2-2-2-2-2-|
--5-5-5-5-5-5-5-5-5-5-5-5-5-5-5-5-|--2-2-2-2-2-2-2-2-2-2-2-2-2-2-2-2-|
--5-5-5-5-5-5-5-5-5-5-5-5-5-5-5-5-|--2-2-2-2-2-2-2-2-2-2-2-2-2-2-2-2-|


  S S S S S S S S S S S S S S S S    S S S S S S S S S S S S S S S S  
----------------------------------|----------------------------------|
----------------------------------|----------------------------------|
----------------------------------|--5-5-5-5-5-5-5-5-5-5-5-5-5-5-5-5-|
--2-2-2-2-2-2-2-2-2-2-2-2-2-2-2-2-|--5-5-5-5-5-5-5-5-5-5-5-5-5-5-5-5-|
--2-2-2-2-2-2-2-2-2-2-2-2-2-2-2-2-|--3-3-3-3-3-3-3-3-3-3-3-3-3-3-3-3-|
--2-2-2-2-2-2-2-2-2-2-2-2-2-2-2-2-|----------------------------------|


  S S S S S S S S S S S S S S S S    S S S S S S S S S S S S S S S S  
----------------------------------|----------------------------------|
----------------------------------|----------------------------------|
--5-5-5-5-5-5-5-5-5-5-5-5-5-5-5-5-|--7-7-7-7-7-7-7-7-7-7-7-7-7-7-7-7-|
--5-5-5-5-5-5-5-5-5-5-5-5-5-5-5-5-|--7-7-7-7-7-7-7-7-7-7-7-7-7-7-7-7-|
--3-3-3-3-3-3-3-3-3-3-3-3-3-3-3-3-|--5-5-5-5-5-5-5-5-5-5-5-5-5-5-5-5-|
----------------------------------|----------------------------------|


  S S S S S S S S S S S S S S S S    E  S S S S S S S S S S S S S S  
----------------------------------|---------------------------------|
----------------------------------|---------------------------------|
--7-7-7-7-7-7-7-7-7-7-7-7-7-7-7-7-|---------------------------------|
--7-7-7-7-7-7-7-7-7-7-7-7-7-7-7-7-|--5--5-5-5-5-5-5-5-5-5-5-5-5-5-5-|
--5-5-5-5-5-5-5-5-5-5-5-5-5-5-5-5-|--5--5-5-5-5-5-5-5-5-5-5-5-5-5-5-|
----------------------------------|--5--5-5-5-5-5-5-5-5-5-5-5-5-5-5-|


  S S S S S S S S S S S S S S S S    S S S S S S S S S S S S S S S S  
----------------------------------|----------------------------------|
----------------------------------|----------------------------------|
----------------------------------|----------------------------------|
--5-5-5-5-5-5-5-5-5-5-5-5-5-5-5-5-|--2-2-2-2-2-2-2-2-2-2-2-2-2-2-2-2-|
--5-5-5-5-5-5-5-5-5-5-5-5-5-5-5-5-|--2-2-2-2-2-2-2-2-2-2-2-2-2-2-2-2-|
--5-5-5-5-5-5-5-5-5-5-5-5-5-5-5-5-|--2-2-2-2-2-2-2-2-2-2-2-2-2-2-2-2-|


  S S S S S S S S S S S S S S S S    S S S S S S S S S S S S S S S S  
----------------------------------|----------------------------------|
----------------------------------|----------------------------------|
----------------------------------|--5-5-5-5-5-5-5-5-5-5-5-5-5-5-5-5-|
--2-2-2-2-2-2-2-2-2-2-2-2-2-2-2-2-|--5-5-5-5-5-5-5-5-5-5-5-5-5-5-5-5-|
--2-2-2-2-2-2-2-2-2-2-2-2-2-2-2-2-|--3-3-3-3-3-3-3-3-3-3-3-3-3-3-3-3-|
--2-2-2-2-2-2-2-2-2-2-2-2-2-2-2-2-|----------------------------------|


  S S S S S S S S S S S S S S S S    S S S S S S S S S S S S S S S S  
----------------------------------|----------------------------------|
----------------------------------|----------------------------------|
--5-5-5-5-5-5-5-5-5-5-5-5-5-5-5-5-|--7-7-7-7-7-7-7-7-7-7-7-7-7-7-7-7-|
--5-5-5-5-5-5-5-5-5-5-5-5-5-5-5-5-|--7-7-7-7-7-7-7-7-7-7-7-7-7-7-7-7-|
--3-3-3-3-3-3-3-3-3-3-3-3-3-3-3-3-|--5-5-5-5-5-5-5-5-5-5-5-5-5-5-5-5-|
----------------------------------|----------------------------------|


                          PM PM PM                                             
  S S S S S S S S S S S S S  S  S  S    W                   W                  
-------------------------------------|-------------------|-------------------||
-------------------------------------|-------------------|-------------------||
--7-7-7-7-7-7-7-7-7-7-7-7------------|-------------------|-------------------||
--7-7-7-7-7-7-7-7-7-7-7-7-x--x--x--5-|--L----------------|--L----------------||
--5-5-5-5-5-5-5-5-5-5-5-5-x--x--x--5-|--L----------------|--L----------------||
--------------------------x--x--x--5-|--L----------------|--L----------------||




Duration Legend
---------------
W - whole
H - half
Q - quarter
E - 8th
S - 16th
T - 32nd
X - 64th
. - note dotted
|-n-|  - n-tuplets


Tablature Legend
----------------
L - tied note
x - dead note
g - grace note
(n) - ghost note
> - accentuded note
NH - natural harmonic
AH - artificial harmonic
TH - tapped harmonic
SH - semi harmonic
PH - pitch harmonic
h - hammer on
p - pull off
b - bend
br - bendRelease
pb - preBend
pbr - preBendRelease
brb - bendReleaseBend
\n/ - tremolo bar dip
\n - tremolo bar dive
-/n - tremolo bar Release up
/n\ - tremolo bar inverted dip
/n - tremolo bar return
-\n - tremolo bar Release down
S - shift slide
s - legato slide
/ -  slide into from below or out of upwards
\ -  slide into from above or out of downwards
~ - vibrato
W - wide vibrato
tr - trill
TP - tremolo picking
T - tapping
S - slap
P - pop
< - fade in
^ - brush up
v - brush down
Tap to rate this tab
# A B C D E F G H I J K L M N O P Q R S T U V W X Y Z