Song name
# A B C D E F G H I J K L M N O P Q R S T U V W X Y Z

Escape The Fate - My Apocalypse tab

----------------------------------------------------------------------------
		   My Apocalypse  - Escape The Fate
----------------------------------------------------------------------------

Tabbeb By:Eric Hernandez
Email:Bfmv702@yahoo.com

Tuning:Drop C

[Intro][Distortion]
D|-------------------------------------------------------------|
A|--------8--8----------8--------------------------------------|
F|--------9--9----------9--------------9-----9------------9----|
C|--------7--7----------7--------------10----10-----------10---|
G|--0-----0--0-----0----0---------8----8-----8------8-----8----|
C|-------------------------------------------------------------|

D|----------------------------------------------------------------|
A|--------8--8--8--------8-10-8--------------------------------8--|
F|--------9--9--9-------------------9---9---9---9---9---9---9--9--|
C|--------7--7--7-------------------10--10--10--10--10--10--10-7--|
G|--0-----0--0--0---0-0-------------8---8---8---8---8---8---8--0--|
C|----------------------------------------------------------------|

[Guitar 1][Chorus]
D|-------------------------------------------------------------------|
A|-------------------------------------------------------------------|
F|-2-2-2-2-2-2-2-2-2-2-2-2-2-2-2-2-------------------5-5-5-5-5-5-5-5-|
C|-2-2-2-2-2-2-2-2-2-2-2-2-2-2-2-2--3-3-3-3-3-3-3-3--5-5-5-5-5-5-5-5-|
G|-0-0-0-0-0-0-0-0-0-0-0-0-0-0-0-0--3-3-3-3-3-3-3-3--3-3-3-3-3-3-3-3-|
C|----------------------------------3-3-3-3-3-3-3-3------------------|

[Guitar 2]
D|-15-0------15-0------15-0------15-0---------------------15--0------------------------------|
A|------13-0------13-0------13-0------13-0--10--0--13--0---------13-0--15-13-13-12-13-12-13--|
F|-------------------------------------------------------------------------------------------|
C|-------------------------------------------------------------------------------------------|
G|-------------------------------------------------------------------------------------------|
C|-------------------------------------------------------------------------------------------|

[Guitar 1]
D|-------------------------------------------------------------------|
A|-------------------------------------------------------------------|
F|-2-2-2-2-2-2-2-2-2-2-2-2-2-2-2-2-----------------------------------|
C|-2-2-2-2-2-2-2-2-2-2-2-2-2-2-2-2--3-3-3-3-3-3-3-3--0-0-0-0-0-0-0-0-|
G|-0-0-0-0-0-0-0-0-0-0-0-0-0-0-0-0--3-3-3-3-3-3-3-3--0-0-0-0-0-0-0-0-|
C|----------------------------------3-3-3-3-3-3-3-3--0-0-0-0-0-0-0-0-|

[Guitar 2]
D|-15-0------15-0------15-0------15-0---------------------15--0------------------------------|
A|------13-0------13-0------13-0------13-0--10--0--13--0---------13-0--15-13-13-12-13-12-17--|
F|-------------------------------------------------------------------------------------------|
C|-------------------------------------------------------------------------------------------|
G|-------------------------------------------------------------------------------------------|
C|-------------------------------------------------------------------------------------------|

[Distortion]
D|-------------------------------------------------------------|
A|--------8--8----------8--------------------------------------|
F|--------9--9----------9--------------9-----9------------9----|
C|--------7--7----------7--------------10----10-----------10---|
G|--0-----0--0-----0----0---------8----8-----8------8-----8----|
C|-------------------------------------------------------------|

D|----------------------------------------------------------------|
A|--------8--8--8--------8-10-8--------------------------------8--|
F|--------9--9--9-------------------9---9---9---9---9---9---9--9--|
C|--------7--7--7-------------------10--10--10--10--10--10--10-7--|
G|--0-----0--0--0---0-0-------------8---8---8---8---8---8---8--0--|
C|----------------------------------------------------------------|

[Verse 1]
D|------------------------------------------------------------------------|
A|------20--20--20--20--20--20--17-------20--20--20--20--20--20--17-------|
F|--------17--17--17--17--17--17--17--17---17--17--17--17--17--17--17--17-|
C|----------------------------------19-------------------------------19---| 
G|------------------------------------------------------------------------|
C|------------------------------------------------------------------------|

[Verse 2]
D|----------------------------------------------------------------------|
A|------8-------8-------8-------8-------8-------8-------8---------------|
F|-2-2--9--2-2--9-------9--5-5--9--2-2--9--2-2--9-------9---------------|
C|-2-2--7--2-2--7--3-3--7--5-5--7--2-2--7--2-2--7--3-3--7--0-0--x-x-x-x-|  
G|-0-0-----0-0-----3-3-----3-3-----0-0-----0-0-----3-3-----0-0--x-x-x-x-|
C|-----0-------0---3-3-0-------0-------0-------0---3-3-0---0-0--x-x-x-x-|

[Repeat Chorus]

[Verse 3]
D|------------------------------------------------------------------------------|
A|------------------------------------------------------------------------------|
F|------------------------------5-5-5-5-----------------------------------------|
C|--7-7-7-7-7-7-7-7-7--3-3-3-3--5-5-5-5--7-7-7-7-7-7-7-7-7--3-3-3-3--0-0-0--3~--|  
G|--7-7-7-7-7-7-7-7-7--3-3-3-3--3-3-3-3--7-7-7-7-7-7-7-7-7--3-3-3-3--0-0-0--3~--|
C|--7-7-7-7-7-7-7-7-7--3-3-3-3-----------7-7-7-7-7-7-7-7-7--3-3-3-3--0-0-0--3~--|

[Repeat Verse 2]

[Repeat Chorus]

[Breakdown][Guitar 1]
D|----------------------------------------------------------------------------------|
A|--13---13---12---10---13*---15---12---10---13---12---10---12---13---15---17---15--|
F|----------------------------------------------------------------------------------|
C|----------------------------------------------------------------------------------|  
G|----------------------------------------------------------------------------------|
C|----------------------------------------------------------------------------------|

[Guitar 2][Clean]
D|-----------------------------------------------------------|
A|--6---3---10--8--------------------------------------------|
F|--5---2---9---7--------------------------------------------|
C|--3---0---7---5--------------------------------------------|  
G|--3---0---7---5--------------------------------------------|
C|--3---0---7---5--------------------------------------------|

[Part 1][slow]
D|-t12p5h7h8-t12p5h7h8-t13p5h7h8-t13p5h7h8-t10p5h7h8-t10p5h7h8-|
A|-------------------------------------------------------------|
F|-------------------------------------------------------------|
C|-------------------------------------------------------------|
G|-------------------------------------------------------------|
C|-------------------------------------------------------------|

D|-t15p5h7h8-t17p5h7h8-|
A|---------------------|
F|---------------------|
C|---------------------|
G|---------------------|
C|---------------------|

[Part 2][Moderate]
D|-t12p5h7h8-t12p5h7h8-t12p5h7h8-t12p5h7h8-t13p5h7h8-t13p5h7h8-|
A|-------------------------------------------------------------|
F|-------------------------------------------------------------|
C|-------------------------------------------------------------|
G|-------------------------------------------------------------|
C|-------------------------------------------------------------|

D|-t13p5h7h8-t13p5h7h8-t10p5h7h8-t10p5h7h8-t10p5h7h8-t10p5h7h8-|
A|-------------------------------------------------------------|
F|-------------------------------------------------------------|
C|-------------------------------------------------------------|
G|-------------------------------------------------------------|
C|-------------------------------------------------------------|

D|-t15p5h7h8-t15p5h7h8-t17p5h7h8-t17~-|
A|------------------------------------|
F|------------------------------------|
C|------------------------------------|
G|------------------------------------|
C|------------------------------------|

[Part 3][Fast][Guitar 1]
D|-t12p5h7h8-x8-t13p5h7h8-x8-t10p5h7h8-x8-t15p5h7h8-x8-t17p5h7h8-x8-|
A|------------------------------------------------------------------|
F|------------------------------------------------------------------|
C|------------------------------------------------------------------|
G|------------------------------------------------------------------|
C|------------------------------------------------------------------|

D|-t12p5h7h8-t13p5h7h8-t12p5h7h8-t15p5h7h8-|
A|-----------------------------------------|
F|-----------------------------------------|
C|-----------------------------------------|
G|-----------------------------------------|
C|-----------------------------------------|
                                                     
D|-t12p5h7h8-t17p5h7h8-t12p5h7h8-t17p5h7h8-|
A|-----------------------------------------|
F|-----------------------------------------|
C|-----------------------------------------|
G|-----------------------------------------|
C|-----------------------------------------|

[Guitar 2]
D|----------------------------------------------------------|
A|----------------------------------------------------------|
F|----------------------------------------------------------|
C|--3-3-3-3-3-3-3-0-0-0-0-0-0-0-7-7-7-7-7-7-7-5-5-5-5-5-5-5-|  
G|--3-3-3-3-3-3-3-0-0-0-0-0-0-0-7-7-7-7-7-7-7-5-5-5-5-5-5-5-|
C|--3-3-3-3-3-3-3-0-0-0-0-0-0-0-7-7-7-7-7-7-7-5-5-5-5-5-5-5-|

[Part 4][Moderate-Fast]
D|8585-7555-7555-75-5050-|
A|-----------------------|   [x4]
F|-----------------------|
C|-----------------------|
G|-----------------------|
C|-----------------------|

D|-13p0-12p0-8p0-7p0-8p0-7p0-5p0-7p0-|
A|-----------------------------------|
F|-----------------------------------|
C|-----------------------------------|   [x3]
G|-----------------------------------|
C|-----------------------------------|

D|-800-700-500-7-575---|
A|---------------------|
F|---------------------|
C|---------------------|
G|---------------------|
C|---------------------|

[Outro][Guitar 1]
D|----------------------------------------------------------------------------------------|
A|----------------------------------------------------------------------------------------|
F|----------------------------------------------------------------------------------------|
C|--3-xx-3-xx-3-xx-3-3-3-0-xx-0-xx-0-xx-0-0-0-7-xx-7-xx-7-xx-7-7-7-5-xx-5-xx-5-xx-5-5-5-3-|  
G|--3-xx-3-xx-3-xx-3-3-3-0-xx-0-xx-0-xx-0-0-0-7-xx-7-xx-7-xx-7-7-7-5-xx-5-xx-5-xx-5-5-5-3-|
C|--3-xx-3-xx-3-xx-3-3-3-0-xx-0-xx-0-xx-0-0-0-7-xx-7-xx-7-xx-7-7-7-5-xx-5-xx-5-xx-5-5-5-3-|

[Guitar 2]
D|--20--20--19--19-----------------------------------------|
A|------------------20--20--17--17-------------------------|
F|----17--17--17--17--17--17--17---------------------------|
C|---------------------------------------------------------|  
G|---------------------------------------------------------|
C|---------------------------------------------------------|
Tap to rate this tab
 
# A B C D E F G H I J K L M N O P Q R S T U V W X Y Z