Song name
# A B C D E F G H I J K L M N O P Q R S T U V W X Y Z

Escape The Fate - Ashley tab

-----------------------------------------------------------|
-----------------------------------------------------------|
--7--9-9--9---16-16--16-11---11-12-12--12---12-12--12-11---|
--x--x-x--x---x--x---x--x----x--x--x---x----x---x--x--x----| x3
--5--7-7--7---14-14--14-9----9--10-10--10---10-10--10-9----|
-----------------------------------------------------------|

--------------------------------------------------------|
--------------------------------------------------------|
--7--9-9--9---16-16--16-11---11-12-12--12----7-9--9-9---|
--x--x-x--x---x--x---x--x----x--x--x---x-----x-x--x-x---|
--5--7-7--7---14-14--14-9----9--10-10--10----5-7--7-7---|
--------------------------------------------------------|
Tap to rate this tab
# A B C D E F G H I J K L M N O P Q R S T U V W X Y Z