Song name
# A B C D E F G H I J K L M N O P Q R S T U V W X Y Z

Escape The Fate - Smooth tab

                            Escape the Fate
                                Smooth                                      

I made this on Guitar Pro and just extracted it into here. There are two guitars, 
lead and rythym. give feed back please. thanks



Gtr. I



     PM PM  PM   PM                                             
     S  E.  Q    E   S   S  E   S S     S   H.             E.   
D||------------------------10-------|--10h-12~-------------L---|
A||-----------------10h-12-----12---|--------------------------|
F||---------------------------------|--------------------------|
C||---------------------------------|--------------------------|
G||--0--0---0----0------------------|--------------------------|
C||--0--0---0----0------------------|--------------------------|


   E   E   E   E     Q.       S  S     S  S  H         Q.      
---L--10--12--14--<>14b------10-12-|--14-12-12---------L------|
-----------------------------------|--------------------------|
-----------------------------------|--------------------------|
-----------------------------------|--------------------------|
-----------------------------------|--------------------------|
-----------------------------------|--------------------------|


   E   Q      H            E       S H        Q.     S  
---L---------------------------|-----------------------|
------10b----10brb--------10b--|--10-8--------L------L-|
-------------------------------|-----------------------|
-------------------------------|-----------------------|
-------------------------------|-----------------------|
-------------------------------|-----------------------|


  E  S S E  E  E  E  S   S  E     Q.     Q.     Q                
-------------------------------|---------------------|----|----||
--L--8-7-----------------------|---------------------|----|----||
---------9--8--8--9--9s-11s-9--|--9------9------L----|----|----||
-------------------------------|---------------------|----|----||
-------------------------------|---------------------|----|----||
-------------------------------|---------------------|----|----||

  

Gtr. 2



     PM PM  PM   PM PM PM PM PM                            
     S  E.  Q    S  S. S. E  E     Q    E  E  E  E  E  E   
D||-----------------------------|-------------------------|
A||-----------------------------|-------------------------|
F||-----------------------------|----------------5-----4--|
C||-----------------------------|--2----5--7-----5-----4--|
G||--0--0---0----0--0--0--0--0--|--2----5--7-----3-----2--|
C||--0--0---0----0--0--0--0--0--|--2----5--7--------------|


                PM                                                  PM        
  Q    E  E  E  E  Q        Q    E  E  E  E  E  E     Q    E  E  E  E  Q      
-------------------------|-------------------------|-------------------------|
-------------------------|-------------------------|-------------------------|
--L----2--4--------------|----------------5-----4--|--L----2--4--------------|
--L----2--4--------------|--2----5--7-----5-----4--|--L----2--4--------------|
--L----0--2-----x--3~----|--2----5--7-----3-----2--|--L----0--2-----x--3~----|
----------------x--------|--2----5--7--------------|----------------x--------|


                                          PM                                  
  Q    E  E  E  E  E  E     Q    E  E  E  E  Q        Q    E  E  E  E  E  E   
-------------------------|-------------------------|-------------------------|
-------------------------|-------------------------|-------------------------|
----------------5-----4--|--L----2--4--------------|----------------5-----4--|
--2----5--7-----5-----4--|--L----2--4--------------|--2----5--7-----5-----4--|
--2----5--7-----3-----2--|--L----0--2-----0--3~----|--2----5--7-----3-----2--|
--2----5--7--------------|----------------0--------|--2----5--7--------------|


                PM                 
  Q    E  E  E  E  Q               
-------------------------|-------||
-------------------------|-------||
--L----2--4--------------|-------||
--L----2--4--------------|-------||
--L----0--2-----0--3~----|-------||
----------------0--------|-------||




Duration Legend
---------------
W - whole
H - half
Q - quarter
E - 8th
S - 16th
T - 32nd
X - 64th
. - note dotted
|-n-|  - n-tuplets


Tablature Legend
----------------
L - tied note
x - dead note
g - grace note
(n) - ghost note
> - accentuded note
NH - natural harmonic
AH - artificial harmonic
TH - tapped harmonic
SH - semi harmonic
PH - pitch harmonic
h - hammer on
p - pull off
b - bend
br - bendRelease
pb - preBend
pbr - preBendRelease
brb - bendReleaseBend
\n/ - tremolo bar dip
\n - tremolo bar dive
-/n - tremolo bar Release up
/n\ - tremolo bar inverted dip
/n - tremolo bar return
-\n - tremolo bar Release down
S - shift slide
s - legato slide
/ -  slide into from below or out of upwards
\ -  slide into from above or out of downwards
~ - vibrato
W - wide vibrato
tr - trill
TP - tremolo picking
T - tapping
S - slap
P - pop
< - fade in
^ - brush up
v - brush down
Tap to rate this tab
# A B C D E F G H I J K L M N O P Q R S T U V W X Y Z