Song name
# A B C D E F G H I J K L M N O P Q R S T U V W X Y Z

Escape The Fate - Bad Blood tab

Escape the fate's new song "Bad Blood" from the This War is Ours Deluxe album

Escape the fate
Bad Blood

SOLO NOT INCLUDED
These tabs are not 100% but they're close enough since the only version of
the song there is, is live and the quality isn't as great. But the tabs
sound very very close.


Intro:

Guitar 1
D|------------------------------------------------------------------------|
A|------------------------------------------------------------------------|
F|-14----14-15----15----15-12----12-14----14---------14----14-15----15----|
C|----12-------12----12-------12-------12----15-12------12-------12----12-|
G|------------------------------------------------------------------------|
C|------------------------------------------------------------------------|

D|------------------------------------------------------------------------|
A|------------------------------------------------------------------------|
F|-15-12----12-17----17-14------------------------------------------------|
C|-------12-------12-------15---------------------------------------------| x2
G|------------------------------------------------------------------------|
C|------------------------------------------------------------------------|

Guitar 2
D|-------------------------------------------------------------------------|
A|-------------------------------------------------------------------------|
F|-------------------------------------------------------------------------|
C|-------------------------------------------------------------------------|
G|-------------------------------------------------------------------------|
C|-00000-00000-0-00000-00000-0000000-00000-00000-00000-0000000-00000-00000-|

D|------------------------------------------------------------------------|
A|------------------------------------------------------------------------|
F|------------------------------------------------------------------------|
C|------------------------------------------------------------------------|
G|------------------------------------------------------------------------|
C|-00000-0000000-00000-00000-0-0-000--------------------------------------|


Intro 2:

Guitar 1
D|------------------------------------------------------------------------|
A|------------------------------------------------------------------------|
F|-191919-20-2020-151515-17-1717--191919-20-2020-151515-14-1414-----------|
C|--x-x-x--x--x-x--x-x-x--x--x-x---x-x-x--x--x-x--x-x-x--x--x-x-----------| x2
G|-171717-18-1818-131313-15-1515--171717-18-1818-131313-12-1212-----------|
C|------------------------------------------------------------------------|

Guitar 2
D|------------------------------------------------------------------------|
A|------------------------------------------------------------------------|
F|------------------------------------------------------------------------|
C|-7-5-7-8-88-333-5-55--7-5-7-8-88-333-2-22-------------------------------|
G|-5-3-5-6-66-111-3-33--5-3-5-6-66-111-0-00-------------------------------| x2
C|------------------------------------------------------------------------|


Verse:

Guitar 1
D|------------------------------------------------------------------------|
A|------------------------------------------------------------------------|
F|------------------------------------------------------------------------|
C|------------------------------------------------------------------------|
G|-5-3-5-6-x-6------------------------------------------------------------| x4
C|-------------0-0-0-3ph--------------------------------------------------|


Pre Chorus:

Guitar 1
D|------------------------------------------------------------------------|
A|------------------------------------------------------------------------|
F|-14----14-15r----17r----17-15-14----------------------------------------|
C|----12--------12-----12-------------------------------------------------|
G|------------------------------------------------------------------------| x2
C|------------------------------------------------------------------------|

Guitar 2
D|------------------------------------------------------------------------|
A|------------------------------------------------------------------------|
F|------------------------------------------------------------------------|
C|------------------------------------------------------------------------|
G|------------------------------------------------------------------------| x4
C|-00000-22222-33333-22220022---------------------------------------------|


Chorus:

Guitar 1
D|------------------------------------------------------------------------|
A|------------------------------------------------------------------------|
F|-191919-20-2020-151515-17-1717--191919-20-2020-151515-14-1414-----------|
C|--x-x-x--x--x-x--x-x-x--x--x-x---x-x-x--x--x-x--x-x-x--x--x-x-----------| x2
G|-171717-18-1818-131313-15-1515--171717-18-1818-131313-12-1212-----------|
C|------------------------------------------------------------------------|

Guitar 2
D|------------------------------------------------------------------------|
A|------------------------------------------------------------------------|
F|------------------------------------------------------------------------|
C|-7-5-7-8-88-333-5-55--7-5-7-8-88-333-2-22-------------------------------|
G|-5-3-5-6-66-111-3-33--5-3-5-6-66-111-0-00-------------------------------| x2
C|------------------------------------------------------------------------|


Verse 2:

Guitar 1
D|------------------------------------------------------------------------|
A|------------------------------------------------------------------------|
F|------------------------------------------------------------------------|
C|------------------------------------------------------------------------|
G|-5-3-5-6-x-6------------------------------------------------------------| x4
C|-------------0-0-0-3ph--------------------------------------------------|


Pre Chorus 2:


Guitar 1
D|------------------------------------------------------------------------|
A|------------------------------------------------------------------------|
F|-14----14-15r----17r----17-15-14----------------------------------------|
C|----12--------12-----12-------------------------------------------------|
G|------------------------------------------------------------------------| x2
C|------------------------------------------------------------------------|

Guitar 2
D|------------------------------------------------------------------------|
A|------------------------------------------------------------------------|
F|------------------------------------------------------------------------|
C|------------------------------------------------------------------------|
G|------------------------------------------------------------------------| x4
C|-00000-22222-33333-22220022---------------------------------------------|


Chorus 2:

Guitar 1
D|------------------------------------------------------------------------|
A|------------------------------------------------------------------------|
F|-191919-20-2020-151515-17-1717--191919-20-2020-151515-14-1414-----------|
C|--x-x-x--x--x-x--x-x-x--x--x-x---x-x-x--x--x-x--x-x-x--x--x-x-----------| x3
G|-171717-18-1818-131313-15-1515--171717-18-1818-131313-12-1212-----------|
C|------------------------------------------------------------------------|

Guitar 2
D|------------------------------------------------------------------------|
A|------------------------------------------------------------------------|
F|------------------------------------------------------------------------|
C|-7-5-7-8-88-333-5-55--7-5-7-8-88-333-2-22-------------------------------|
G|-5-3-5-6-66-111-3-33--5-3-5-6-66-111-0-00-------------------------------| x3
C|------------------------------------------------------------------------|

Breakdown:

Guitar 1
D|------------------------------------------------------------------------|
A|------------------------------------------------------------------------|
F|------------------------------------------------------------------------|
C|------------------------------------------------------------------------|
G|------------------------------------------------------------------------|
C|-0000-0000-0-00--0000-0000-0-00--0000-0000-0-00--0000-0000-0-0----------|

D|------------------------------------------------------------------------|
A|------------------------------------------------------------------------|
F|------------------------------------------------------------------------|
C|------------------------------------------------------------------------|
G|------------------------------------------------------------------------| x2
C|-0000-0000-0-00--0-0-0-3ph--0000-0000-0-00--000-------------------------|


Solo:

Sorry I don't have the solo down yet, once i figure out the notes i will put them up.


Chorus:

Guitar 1
D|------------------------------------------------------------------------|
A|------------------------------------------------------------------------|
F|-191919-20-2020-151515-17-1717--191919-20-2020-151515-14-1414-----------|
C|--x-x-x--x--x-x--x-x-x--x--x-x---x-x-x--x--x-x--x-x-x--x--x-x-----------| x2
G|-171717-18-1818-131313-15-1515--171717-18-1818-131313-12-1212-----------|
C|------------------------------------------------------------------------|

Guitar 2
D|------------------------------------------------------------------------|
A|------------------------------------------------------------------------|
F|------------------------------------------------------------------------|
C|-7-5-7-8-88-333-5-55--7-5-7-8-88-333-2-22-------------------------------|
G|-5-3-5-6-66-111-3-33--5-3-5-6-66-111-0-00-------------------------------| x2
C|------------------------------------------------------------------------|

Guitar 1
D|------------------------------------------------------------------------|
A|------------------------------------------------------------------------|
F|------------------------------------------------------------------------|
C|------------------------------------------------------------------------|
G|-17-17-17-20-20-18------------------------------------------------------|
C|------------------------------------------------------------------------|

Guitar 2
D|------------------------------------------------------------------------|
A|------------------------------------------------------------------------|
F|------------------------------------------------------------------------|
C|------------------------------------------------------------------------|
G|-5-5-5-8-8-6------------------------------------------------------------|
C|------------------------------------------------------------------------|


Ending Breakdown:

Guitar 1
D|------------------------------------------------------------------------|
A|-x-15-x-15-x-15-x-15----------------------------------------------------|
F|------------------------------------------------------------------------|
C|------------------------------------------------------------------------| x9
G|------------------------------------------------------------------------|
C|------------------------------------------------------------------------|

Guitar 2
D|------------------------------------------------------------------------|
A|------------------------------------------------------------------------|
F|------------------------------------------------------------------------|
C|------------------------------------------------------------------------|
G|------------------------------------------------------------------------| x9
C|-0000-0000-0-00---------------------------------------------------------|
Tap to rate this tab
 
# A B C D E F G H I J K L M N O P Q R S T U V W X Y Z