Song name
# A B C D E F G H I J K L M N O P Q R S T U V W X Y Z

Escape The Fate - Something tab

-------------------------------------------------------------------------------
			     Something-Escape The Fate
-------------------------------------------------------------------------------
Tabbed by:Ross123


Tuning:Drop C

                  T
e|---------11-15-20-15-11----------------|
B|-------13--------------13--------------|
G|-----12------------------12------------| x2
D|---13----------------------13----------|
A|-15--------------------------15--------|
E|---------------------------------------|


                  T
e|---------11-16-18-16-11----------------|
B|-------13--------------13--------------|
G|-----12------------------12------------| x2
D|---13----------------------13----------|
A|-15--------------------------15--------|
E|---------------------------------------|

e|---------11-13-15-13-11----------------|
B|-------15--------------15--------------|
G|-----15------------------15------------| x2
D|---15----------------------15----------|
A|-13--------------------------13--------|
E|---------------------------------------|


e|------------------------|
B|---------18-16----15----|
G|------15----------------|
D|----17------------------|
A|-18---------------------|
E|------------------------|


| /  slide up
| \  slide down
| h  hammer-on
| p  pull-off
| ~  vibrato
| +  harmonic
| x  Mute note
========================================================================
Tap to rate this tab
# A B C D E F G H I J K L M N O P Q R S T U V W X Y Z