Song name
# A B C D E F G H I J K L M N O P Q R S T U V W X Y Z

Escape The Fate - Behind The Mask tab

Escape The Fate-Behind The Mask
This War Is Ours (2010)
Guitar Tab by Ryan Ryngaert
Drop C Tuning (C, G, C, F, A, D)

Intro
D----------------------------------------------------------|x2
A----------------------------------------------------------|
F----------------------------------------------------------|
C----------------------------------------------------------|
G-1-3--------------4-3-------------6-3-------------4-3-----|
C-1-3--3-3-3-3-3-3-----3-3-3-3-3-3-----3-3-3-3-3-3-----6-3-|

Verse
D----------------------------------------------------------|x4
A----------------------------------------------------------|
F----------------------------------------------------------|
C----------------------------------------------------------|
G-1-3--------------4-3-------------6-3-------------4-3-----|
C-1-3--3-3-3-3-3-3-----3-3-3-3-3-3-----3-3-3-3-3-3-----6-3-|

Pre-Chorus
D-----------------|x2
A-----------------|
F-----------------|
C-6-6-6-6-8-8-8-8-|
G-4-4-4-4-6-6-6-6-|
C-----------------|

Chorus
D---------------------------------------------------|x2
A---------------------------------------------------|
F---------------------------------------------------|
C-------------5--5--5-5-5--6--6--6-6-6--8--8--8-8-8-|
G-3--3--3-3-3-3--3--3-3-3--4--4--4-4-4--6--6--6-6-6-|
C-3--3--3-3-3---------------------------------------|

Verse
D----------------------------------------------------------|x4
A----------------------------------------------------------|
F----------------------------------------------------------|
C----------------------------------------------------------|
G-1-3--------------4-3-------------6-3-------------4-3-----|
C-1-3--3-3-3-3-3-3-----3-3-3-3-3-3-----3-3-3-3-3-3-----6-3-|

Pre-Chorus
D-----------------|x2
A-----------------|
F-----------------|
C-6-6-6-6-8-8-8-8-|
G-4-4-4-4-6-6-6-6-|
C-----------------|

Chorus
D---------------------------------------------------|x4
A---------------------------------------------------|
F---------------------------------------------------|
C-------------5--5--5-5-5--6--6--6-6-6--8--8--8-8-8-|
G-3--3--3-3-3-3--3--3-3-3--4--4--4-4-4--6--6--6-6-6-|
C-3--3--3-3-3---------------------------------------|

Breakdown
D----------------------------------------------------------|x8
A----------------------------------------------------------|
F----------------------------------------------------------|
C----------------------------------------------------------|
G-1-3--------------4-3-------------6-3-------------4-3-----|
C-1-3--3-3-3-3-3-3-----3-3-3-3-3-3-----3-3-3-3-3-3-----6-3-|

Solo

Figure It Out!

Chorus
D---------------------------------------------------|x4
A---------------------------------------------------|
F---------------------------------------------------|
C-------------5--5--5-5-5--6--6--6-6-6--8--8--8-8-8-|
G-3--3--3-3-3-3--3--3-3-3--4--4--4-4-4--6--6--6-6-6-|
C-3--3--3-3-3---------------------------------------|

Outro
D----------------------------------------------------------|x2
A----------------------------------------------------------|
F----------------------------------------------------------|
C----------------------------------------------------------|
G-1-3--------------4-3-------------6-3-------------4-3-----|
C-1-3--3-3-3-3-3-3-----3-3-3-3-3-3-----3-3-3-3-3-3-----6-3-|

D-----------------------|
A-----------------------|
F-----------------------|
C-----------------------|
G-4--4-3--------------3-|
C--------6--8--8-6-1--3-|

That is the whole song, except the Solo.
Good Luck!
Tap to rate this tab
# A B C D E F G H I J K L M N O P Q R S T U V W X Y Z