Song name
# A B C D E F G H I J K L M N O P Q R S T U V W X Y Z

Eskimo Joe - Planet Earth tab

Eskimo Joe - Planet Earth

Album - Girl

Lead Intro
~~~~~~~~~~
         D               Bm                G
E: |------------------------------------------------------------------------------------|
B: |-------------3-2-----------------------------2-3-5-3-2-----------3-2---------2-3----|
G: |---------------------4-2-----------------4---------------4-------------4-2-4--------|
D: |-----0-----------------------5-4-5--------------------------------------------------|
A: |-------------------------------------------------------------2----------------------|
E: |---------------------------------------3--------------------------------------------|

       E                  G
E: |------------------------------------------------------------------------------------|
B: |--------------------------------2-3-------------------------------------------------|
G: |--------1-2-4----------------4------------------------------------------------------|
D: |------------------------------------------------------------------------------------|
A: |------------------------------------------------------------------------------------|
E: |---0------------------3-------------------------------------------------------------|

Verse
~~~~~
       D       G       Bm      E    G
E: |---2-------3-------222222220----3---|
B: |---3-------3-------332232320----3---|
G: |---2-------0-------444444441----0---| x 2
D: |---0-------0-------444444442----0---|
A: |-----------2-------222222222----2---|
E: |-----------3-------222222220----3---|

Chorus
~~~~~~
       D       E       G       E    G
E: |---2-------7-------3-------7----3---|
B: |---3-------9-------3-------9----3---|
G: |---2-------9-------0-------9----0---|
D: |---0-------9-------0-------9----0---|
A: |-----------7-------2-------7----2---|
E: |-----------7-------3-------7----3---|

Verse
~~~~~
       D       G       Bm      E    G
E: |---2-------3-------222222220----3---|
B: |---3-------3-------332232320----3---|
G: |---2-------0-------444444441----0---| x 2
D: |---0-------0-------444444442----0---|
A: |-----------2-------222222222----2---|
E: |-----------3-------222222220----3---|

Chorus
~~~~~~
       D       E       G       E    G
E: |---2-------7-------3-------7----3---|
B: |---3-------9-------3-------9----3---|
G: |---2-------9-------0-------9----0---| x 2
D: |---0-------9-------0-------9----0---|
A: |-----------7-------2-------7----2---|
E: |-----------7-------3-------7----3---|

Bridge
~~~~~~
       E       G
E: |---7-------3---|
B: |---9-------3---|
G: |---9-------0---|
D: |---9-------0---|
A: |---7-------2---|
E: |---7-------3---|

Verse
~~~~~
       D               G               Bm              E       G
E: |-----2---2---2---2---3---3---3---3---2---2---2---2---0---0---3---3----|
B: |------3---3---3---3---3---3---3---3---3---3---3---3---0---0---3---3---|
G: |----2---2---2---2---0---0---0---0---4---4---4---4---1---1---0---0-----| x 2
D: |---0---0---0---0---0---0---0---0---4---4---4---4---2---2---0---0------|
A: |----------------------------------------------------------------------|
E: |----------------------------------------------------------------------|

Chorus
~~~~~~
       D       E       G       E    G
E: |---2-------7-------3-------7----3---|
B: |---3-------9-------3-------9----3---|
G: |---2-------9-------0-------9----0---|
D: |---0-------9-------0-------9----0---|
A: |-----------7-------2-------7----2---|
E: |-----------7-------3-------7----3---|

Outro
~~~~~
       D       E       G       E        G    D
E: |---2-------7-------3-------0--------3----2---|
B: |---3-------9-------3-------0--------3----3---|
G: |---2-------9-------0-------1--------0----2---|
D: |---0-------9-------0-------2--------0----0---|
A: |-----------7-------2-------2--------2--------|
E: |-----------7-------3-------0--------3--------|
Tap to rate this tab
# A B C D E F G H I J K L M N O P Q R S T U V W X Y Z