Song name
# A B C D E F G H I J K L M N O P Q R S T U V W X Y Z

Europe - Settle For Love tab

Europe
Settle For Love 
from "Start From The Dark" record
Tabbed by Gilad201 (gilad201@gmail.com)

Note: This is my first tab so im not 100% sure it's right

Chords Of Intro Em ,Bm , Em , Bm , Am , G , D [x2]

And clean guitar does:


E|---------------------------------------|
B|-------0--3-s-5------5-7-8-7v----------|
G|---------------------------------------|
D|---------------------------------------|
A|---------------------------------------|
E|---------------------------------------|

E|------------------------------------------------|
B|---0--3-s-5------5-7-8-7h8p7--5-----------------|
G|---------------------------------4--4--4----2v--|
D|------------------------------------------------|
A|------------------------------------------------|
E|------------------------------------------------|

E|------------------------------------------------|
B|--0---------------------------------------------|
G|----2--0------4s7------2h0----------------------|
D|------------------------------------7s9--9v-----|
A|------------------------------------------------|
E|------------------------------------------------|

And thats it please give your comment





Tap to rate this tab
# A B C D E F G H I J K L M N O P Q R S T U V W X Y Z