Guitaretab - guitar tabs
Song name
# A B C D E F G H I J K L M N O P Q R S T U V W X Y Z

Europe - The Final Countdown tab

Europe  Final Countdown

Firstly check out/rate my other tabs thanks!

In all it's epicness, IT'S THE FINAL COUNTDOWN!!! This is very accurate &
precise! I really dont know why there wasnt an accurate one up already but
here ya go! Contact me at: rattlehead.coolio@hotmail.com

Tablature legend:
?(?)  - bend(to whatever is in the brackets)
h     - hammer-on
p     - pull-off
t~    - tremolo
d~    - dive-bomb
PM|-| - Palm-Mute
X\    - Pick slide
~     - vibrato
/     - slide up
\     - slide down

Intro:
e|----------------------------------------------------------|
B|----------------------------------------------------------|
G|----------------------------------------------------------|
D|-----------------------------7--7-7-7--7-7-7--7-7-7--7-7--|
A|-4--4-4-4--4-4-4--4-4-4--4-4-5--5-5-5--5-5-5--5-5-5--5-5--|
E|-2--2-2-2--2-2-2--2-2-2--2-2------------------------------|
PM|-------------------------------------------------------|


e|----------------------------------------------------------|
B|----------------------------------------------------------|
G|----------------------------------------------------------|
D|-4--4-4-4--4-4-4--4-4-4--4-4------------------------------|
A|-2--2-2-2--2-2-2--2-2-2--2-2-2--2-2-2--2-2-2--2-2-2--2-2--|
E|-----------------------------0--0-0-0--0-0-0--0-0-0--0-0--|Repeat!
PM|-------------------------------------------------------|

e|--------------------------------------|
B|--------------------------------------|
G|-------------------6------------------|
D|-------------------6-------4----------|
A|-4--6---7-6-4-6-2--4-------4----------|
E|-2--4---5-4-2-4-0----------2----------|

Verse I:
e|----------------------------------------------|
B|----------------------------------------------|
G|---------------------4------------------------|
D|-------4-----------2-4----4------4-----7------|
A|-X\--2-4-----------0-2--2-4----2-4--7--7------|
E|-X\--0-2----------------0-2----0-2--4--5------|

e|----------------------------------------------------------|
B|----------------------------------------------------------|
G|----------------------------------------------------------|
D|-7--7-7-7--7-7-7--7-7-7--7-7-9--9-9-9--9-9-9--9-9-9--9-9--|
A|-5--5-5-5--5-5-5--5-5-5--5-5-7--7-7-7--7-7-7--7-7-7--7-7--|
E|----------------------------------------------------------|
PM|-------------------------------------------------------|

e|----------------------------------------------------------|
B|----------------------------------------------------------|
G|----------------------------------------------------------|
D|----------------------------------------------------------|
A|-7--7-7-7--7-7-6--6-6-6--6-6-4--4-4-4--4-4-2--2-2-2--2-2--|
E|-5--5-5-5--5-5-4--4-4-4--4-4-2--2-2-2--2-2-0--0-0-0--0-0--|
PM|------------------------------------------------------|

e|-------------------------------------------------------------------------|
B|-------------------------------------------------------------------------|
G|-------------------------------------------------------------------------|
D|-7--7-7-7--7-7-7--7-7-7--7-7-6--6-6-6--6-6-6--6-6-6--6-6-----------------|
A|-5--5-5-5--5-5-5--5-5-5--5-5-4--4-4-4--4-4-4--4-4-4--4-4--7-7--7--7--7-\-|
E|----------------------------------------------------------4-4--4--4--4-\-|
PM|-------------------------------------------------------|

Chorus I:
e|----------------------------------------------------------|
B|----------------------------------------------------------|
G|----------------------------------------------------------|
D|-----------------------------7--7-7-7--7-7-7--7-7-7--7-7--|
A|-4--4-4-4--4-4-4--4-4-4--4-4-5--5-5-5--5-5-5--5-5-5--5-5--|
E|-2--2-2-2--2-2-2--2-2-2--2-2------------------------------|
PM|-------------------------------------------------------|

e|----------------------------------------------------------|
B|----------------------------------------------------------|
G|----------------------------------------------------------|
D|-4--4-4-4--4-4-4--4-4-4--4-4------------------------------|
A|-2--2-2-2--2-2-2--2-2-2--2-2-2--2-2-2--2-2-2--2-2-2--2-2--|
E|-----------------------------0--0-0-0--0-0-0--0-0-0--0-0--|Repeat!
PM|-------------------------------------------------------|

Verse II: same as Verse I except without the pick slide at the beginning!

Chorus II: Same as other! With this afterwards:
e|--------------------------------------|
B|--------------------------------------|
G|-------------------6------------------|
D|-------------------6-------4----------|
A|-4--6---7-6-4-6-2--4-------4----------|
E|-2--4---5-4-2-4-0----------2----------|

Solo:
e|----10-14p10----10-14p10----10-14p10----10-14p10----10-14p10--|
B|-12----------12----------12----------12----------12-----------|
G|--------------------------------------------------------------|
D|--------------------------------------------------------------|
A|--------------------------------------------------------------|
E|--------------------------------------------------------------|

e|----12-15p12----12-15p12----12-15p12----12-15p12----12-15p12--|
B|-14----------14----------14----------14----------14-----------|
G|--------------------------------------------------------------|
D|--------------------------------------------------------------|
A|--------------------------------------------------------------|
E|--------------------------------------------------------------|
[ Tab from: http://www.guitaretab.com/e/europe/6168.html ]
e|----14-17p14----14-17p14----14-17p14----14-17p14----14-17p14--|
B|-15----------15----------15----------15----------15-----------|
G|--------------------------------------------------------------|
D|--------------------------------------------------------------|
A|--------------------------------------------------------------|
E|--------------------------------------------------------------|

e|---7-10p7---7-10p7------7------------------|
B|-8--------8--------8-10---10-8h10p8p7------|
G|--------------------------------------9~---|
D|-------------------------------------------|
A|-------------------------------------------|
E|-------------------------------------------|

e|----------------------------------------------7---------------------------------------|
B|-8-8-8-7------------------------------10(12)~---10p7------------10p7------------------|
G|----------9-7--7d~-(6d~)-(4d~)-(2d~)-----------------9(11)(9)p7------9p7-9p7---7-9~~~-|
D|-----------------------------------------------------------------------------9--------|
A|--------------------------------------------------------------------------------------|
E|--------------------------------------------------------------------------------------|

e|----10-14p10----10-14p10----10-14p10----10-14p10----10-14p10--|
B|-12----------12----------12----------12----------12-----------|
G|--------------------------------------------------------------|
D|--------------------------------------------------------------|
A|--------------------------------------------------------------|
E|--------------------------------------------------------------|

e|----12-15p12----12-15p12----12-15p12----12-15p12----12-15p12--|
B|-14----------14----------14----------14----------14-----------|
G|--------------------------------------------------------------|
D|--------------------------------------------------------------|
A|--------------------------------------------------------------|
E|--------------------------------------------------------------|

e|----14-17p14----14-17p14----14-17p14----14-17p14----14-17p14--|
B|-15----------15----------15----------15----------15-----------|
G|--------------------------------------------------------------|
D|--------------------------------------------------------------|
A|--------------------------------------------------------------|
E|--------------------------------------------------------------|

e|---7-10p7---7-10p7------7------------------|
B|-8--------8--------8-10---10-8h10p8p7------|
G|--------------------------------------9~---|
D|-------------------------------------------|
A|-------------------------------------------|
E|-------------------------------------------|

e|----------------------------------------------------------------------|
B|-8-8-8-7-----10(12)-10~--------7(7)-t~~~---9(9)~~~~-12-9(9)~~~~~~---\-|
G|---------9-7------------7~-9~--9(11)t~~~---11(13)~~----11(13)~~~~---\-|
D|----------------------------------------------------------------------|
A|----------------------------------------------------------------------|
E|----------------------------------------------------------------------|End Solo!

Bridge:
                                      (x2)
e|---------------------------------------|
B|---------------------------------------|
G|----------6-7--------4---------7-9-----|
D|-4--------6-7--------4---------7-9-----|
A|-4--------4-5--------2---------5-7-----|
E|-2-------------------------------------|

e|----------------------------|
B|----------------------------|
G|-------------------6--------|
D|-------------------6--------|
A|-4--6---7-6-4-6-2--4--------|
E|-2--4---5-4-2-4-0-----------|

Chorus III:
e|----------------------------------------------------------|
B|----------------------------------------------------------|
G|----------------------------------------------------------|
D|-----------------------------7--7-7-7--7-7-7--7-7-7--7-7--|
A|-4--4-4-4--4-4-4--4-4-4--4-4-5--5-5-5--5-5-5--5-5-5--5-5--|
E|-2--2-2-2--2-2-2--2-2-2--2-2------------------------------|
PM|-------------------------------------------------------|

e|----------------------------------------------------------|
B|----------------------------------------------------------|
G|----------------------------------------------------------|
D|-4--4-4-4--4-4-4--4-4-4--4-4------------------------------|
A|-2--2-2-2--2-2-2--2-2-2--2-2-2--2-2-2--2-2-2--2-2-2--2-2--|
E|-----------------------------0--0-0-0--0-0-0--0-0-0--0-0--|Repeat!
PM|-------------------------------------------------------|

e|-----------------------------------|
B|-----------------------------------|
G|-------------------6-------6-6-6\--|
D|-------------------6-------6-6-6\--|
A|-4--6---7-6-4-6-2--4-------4-4-4\--|
E|-2--4---5-4-2-4-0------------------|

e|----------------------------------------------------------|
B|----------------------------------------------------------|
G|----------------------------------------------------------|
D|-----------------------------7--7-7-7--7-7-7--7-7-7--7-7--|
A|-4--4-4-4--4-4-4--4-4-4--4-4-5--5-5-5--5-5-5--5-5-5--5-5--|
E|-2--2-2-2--2-2-2--2-2-2--2-2------------------------------|
PM|-------------------------------------------------------|

e|----------------------------------------------------------|
B|----------------------------------------------------------|
G|----------------------------------------------------------|
D|-4--4-4-4--4-4-4--4-4-4--4-4------------------------------|
A|-2--2-2-2--2-2-2--2-2-2--2-2-2--2-2-2--2-2-2--2-2-2--2-2--|
E|-----------------------------0--0-0-0--0-0-0--0-0-0--0-0--|Repeat!
PM|-------------------------------------------------------|

e|----------------------------|
B|----------------------------|
G|-------------------6--------|
D|-------------------6--------|
A|-4--6---7-6-4-6-2--4--------|
E|-2--4---5-4-2-4-0-----------|
Fade out!

Enjoy!
Related for The Final Countdown tab