Guitaretab - guitar tabs
Song name
# A B C D E F G H I J K L M N O P Q R S T U V W X Y Z

Evanescence - Forgive Me tab

Artist: Evanescence
Album: Evanescence EP (1998)
Tabber: Dark Falco3000
E-mail: dark_falco3000@hotmail.com
Tuning: Standard (E A D G B e)

Most of this is in chords, which I will put down with the actual lyrics of the song. 
there is a solo, and here it is:

|---------------------------------------------------------|
|---------------------------------------------------------|
|---------------------------------------------------------|
|-------1-----------3---3-3-3---1-0-1-1---3-3-3---1-0-1-0-|
|-1h3-5---5-3-1-3-1---1-------1---------1-------1---------|
|---------------------------------------------------------|

|-------------------------------------------------|
|-------------------------------------------------|
|-------------------------------------------------|
|---3-3-3---1-0-1-0h1-0h1-1-0h1-1-0h1-1-0h1-1-0h1-|
|-1-------1---------------------------------------|
|-------------------------------------------------|

|-------------------------------------------------------------------|
|-------------------------------------------------------------------|
|-------------------------------------------------------------------|
|---0-3---0-3---0-3---0-3---0-3---0-3---0-3---0-3---0-3---0-3---0-3-|
|-1-----1-----1-----1-----1-----1-----1-----1-----1-----1-----1-----|
|-------------------------------------------------------------------|
[ Tab from: http://www.guitaretab.com/e/evanescence/133431.html ]
|-----------------------------------------------|
|-----------------------------------------------|
|-----------------------------------------------|
|---0-3---0-3---0-3---0-3---0-3-3-1-0-3-1-0-1p0-|
|-1-----1-----1-----1-----1---------------------|
|-----------------------------------------------|

Lyrics:

(No guitar)
Can you forgive me again?
I donít know what I said...
But I never meant to hurt you

Bb                      Gm
I heard the words come out
                         F
I thought that I would die
                     Bb
It hurt so much to hurt you


Bb               Dm
Then you look at me
D#
Youíre not shouting anymore
D#m
Youíre silently broken

Bb                Gm
Iíd give anything now
                          F
To kill those words for you
          D#                            Dm
Each time I say something I regret I cry ďI donít wanna leave youĒ
       D#
But somehow I know that you will never leave me, yeah

Bb                    Gm
Coz you were made for me
                        Dm
Some how Iíll make you see
     D#            D#m
How happy you make me
Bb                  Gm
I canít live this life
                    Dm
Without you by my side
  D#              D#m
I need you to survive,
Bb           Gm
So stay with me
    D#                      D#m
You look in my eyes and Iím screaming inside that Iím sorry

Guitar 1: [Solo]
Guitar 2: Bb Gm Dm D# D#m

(No guitar)
And you forgive me again
Youíre my one true friend
And I never meant to hurt you

And there it is, an awesome song. Got praise, complaints or whatever, feel free to 
As long as you're not one of those people who comment on tabs just to say they hate the band/song.
Related for Forgive Me tab