Song name
# A B C D E F G H I J K L M N O P Q R S T U V W X Y Z

Evanescence - Lose Control tab

-------------------------------------------------------------------------------
			     LOSE CONTROL - Evanescence
-------------------------------------------------------------------------------
Tabbed by:Kiera
Email:evanescenceguitarist@yahoo

Tuning:Drop C (ignore the TABS tuning it's Drop C not standard)

I saw another virsion of this tab but it seem impossible for it to sound right so I 
what I heard and what to me sounded better./


Chorus (slowly bend)1:11     x2
e|-----------------------------|
B|-----------------------------|
G|-----------------------------|
D|-1b--1-1-xx1--4b--4-4-xx4----|
A|-1b--1-1-xx1--4b--4-4-xx4----|
E|-1b--1-1-xx1--4b--4-4-xx4----|

The last repeat slide                                                   x2
e|-------------------------------------------------------------------------|
B|-------------------------------------------------------------------------|
G|-------------------------------------------------------------------------|
D|-4-4--44-4--3-4-4--44-4--3-3-3--33-3--1-3-3--33-3(/)---------------------|
A|-4-4--44-4--3-4-4--44-4--3-3-3--33-3--1-3-3--33-3(/)---------------------|
E|-4-4--44-4--3-4-4--44-4--3-3-3--33-3--1-3-3--33-3(/)---------------------|

Chorus

Bridge
e|---------------------------------------|
B|---------------------------------------|
G|---------------------------------------|
D|-8~/5----8~/5----8~/5----8~/5----------|
A|-8~/5----8~/5----8~/5----8~/5----------|
E|-8~/5----8~/5----8~/5----8~/5----------|

e|-------------------------------------------------------------------------|
B|-------------------------------------------------------------------------|
G|-------------------------------------------------------------------------|
D|--8-8--5-5-------8-8--5-5-------8-8--5-5-------8-8--5-5------------------|
A|--8-8--5-5-------8-8--5-5-------8-8--5-5-------8-8--5-5------------------|
E|--8-8--5-5--5-7--8-8--5-5--5-7--8-8--5-5--5-7--8-8--5-5--5-7-------------|

e|----------------------------------------------------------|
B|----------------------------------------------------------|
G|----------------------------------------------------------|
D|--8-8--5-5-------8-8--5-5-------8-8--5-5------------------|
A|--8-8--5-5-------8-8--5-5-------8-8--5-5------------------|
E|--8-8--5-5--5-7--8-8--5-5--5-7--8-8--5-5--5-7-------------|

Outro (starts to fade; repeat until end of song)
e|----------------------------------|
B|----------------------------------|
G|----------------------------------|
D|--4~-/3~---3/4--4~-/3~--3/4-------|
A|--4~-/3~---3/4--4~-/3~--3/4-------|
E|--4~-/3~---3/4--4~-/3~--3/4-------|


| b  bend
| /  slide up
| \  slide down
| h  hammer-on
| p  pull-off
| ~  vibrato
| +  harmonic
| x  Mute note
===============================================================================
Tap to rate this tab
# A B C D E F G H I J K L M N O P Q R S T U V W X Y Z