Guitaretab - guitar tabs
Song name
# A B C D E F G H I J K L M N O P Q R S T U V W X Y Z

Evanescence - Tourniquet tab

-------------------------------------------------------------------------------
			     tourniquet -evanescence
-------------------------------------------------------------------------------
Tabbed by:EVANESCENCE345
Email:
THIS IS MY FIRST TIME TABBING SO I MIGHT GET SOME THINGS WRONG
Tuning:

e|-------------------------------------------------------------------------------|
B|-------------------------------------------------------------------------------|
G|-------------------------------------------------------------------------------|
D|----------2-----------22------------4--------------------2times----------------|
A|----22----------2-----------2--------------------------------------------------|
E|-------------------------------------------------------------------------------|

e|------------------------------------------------------------------------------------|
B|------------------------------------------------------------------------------------|
G|------------------------------------------------------------------------------------|
D|----------------------------------------------5-------------------------------------|
A|----3-3------2-----3-------22----------4------5-------------------------------------|
E|----3-3------------3----------------------------------------------------------------|
[ Tab from: http://www.guitaretab.com/e/evanescence/122038.html ]
e|-----------------------------------------------------------------------------------|
B|-----------------------------------------------------------------------------------|
G|-----------------------------------------------------------------------------------|
D|------------7--------5-------4----------7-------5------4---------------------------|
A|------------------------------------------------------------5----------------------|
E|-----------------------------------------------------------------------------------|
THE 2ND GUITAR PLAYS THIS PART WHILE THE FIRST GUITAR IS PLAYING
e|-----------------7----------------------------------------------------------------|
B|---8------7--------------5-----------8-------7------------------------------------|
G|--------------------------------------------------7-------------------------------|
D|--------------------------------------------------------7-------------------------|
A|----------------------------------------------------------------------------------|
E|----------------------------------------------------------------------------------|
PART WHEN SHE SINGS
e|---------------------------------------------------------------------------------------|
B|---------------------------------------------------------------------------------------|
G|---------------------------------------------------------------------------------------|
D|----22222------------------------------------------------------------------------------|
A|----22222----33333-------5---6---------------------------------------------------------|
E|-------------33333-------5---6---------------------------------------------------------|

e|------------------------------------------------|
B|------------------------------------------------|
G|------------------------------------------------|
D|---------2----------22-------------4---------2--|
A|-----22-------2---------2-----------------------|
E|------------------------------------------------|PLAY THIS 2 TIMES

e|---------------------------------------------------------------------------------|
B|---------------------------------------------------------------------------------|
G|---------------------------------------------------------------------------------|
D|--------------2---------22-------------5-----------------------------------------|
A|------33-----------3-----------4-------5-----------------------------------------|
E|------33-----------3-------------------------------------------------------------|

e|----------------------------------------------------------|
B|----------------------------------------------------------|
G|----------------------------------------------------------|
D|-------7--------5-------4-----7--------5-------4----------|
A|-------------------------------------------------------5--|
E|----------------------------------------------------------|PLAY THIS UNTIL THE END OF THE SONG.


| /  slide up
| \  slide down
| h  hammer-on
| p  pull-off
| ~  vibrato
| +  harmonic
| x  Mute note
===============================================================================
Related for Tourniquet tab
Advertisement will be closed in 10 seconds