Song name
# A B C D E F G H I J K L M N O P Q R S T U V W X Y Z

Evanescence - Anything For You tab

-------------------------------------------------------------------------------
			ANYTHING FOR YOU-Evanescence
-------------------------------------------------------------------------------
Tabbed by: Kiera
Email:kiera.11@sbcglobal.net

Tuning:Drop D
I notice that there aren't any guitar tabs for this one so I thought I'd try it out as 
first tab.

There isn't any guitar for awhile but in the verse you can kinda hear a guitar so just 
the first note or open on the chorus as that random guitar.  Strum it however many times 
think.

()= play on last repeat
Chorus-repeat however many times nessesary
e|---------------------------------------------------------------------------|
B|---------------------------------------------------------------------------|
G|---------------------------------------------------------------------------|
D|--12-12--X-X-X-X-X--10-10--X-X-X-X-X--9-9--X-X-X-X-X--8\5/7\3---(0)--------|
A|--12-12--X-X-X-X-X--10-10--X-X-X-X-X--9-9--X-X-X-X-X--8\5/7\3---(0)--------|
D|--12-12--X-X-X-X-X--10-10--X-X-X-X-X--9-9--X-X-X-X-X--8\5/7\3---(0)--------|

Bridge-repeat however many times nessesary
e|---------------------------------------------------------------------------|
B|---------------------------------------------------------------------------|
G|---------------------------------------------------------------------------|
D|-----------8---------------------------------------------------------------|
A|-----------5-----------5---------------------------------------------------|
D|---0-------------------5---------------------------------------------------|

e|---------------------------------------------------------------------------|
B|---------------------------------------------------------------------------|
G|---------------------------------------------------------------------------|
D|---------------------------------------------------------------------------|
A|----X-X---10--12-----10--0-----------8--5--7--3---0------------------------|
D|----X-X---10--12-----10--0-----------8--5--7--3---0------------------------|

That's all there really is to it.
Hope u enjoy it:)

| /  slide up
| \  slide down
| h  hammer-on
| p  pull-off
| ~  vibrato
| +  harmonic
| x  Mute note
===============================================================================
Tap to rate this tab
 
# A B C D E F G H I J K L M N O P Q R S T U V W X Y Z