Song name
# A B C D E F G H I J K L M N O P Q R S T U V W X Y Z

Eve 6 - Still Here Waiting tab

Help us improve GuitareTab! Take a short survey!
----------------------------------------------------------------------------
			  Still Here Waiting - Eve 6
----------------------------------------------------------------------------
Tabbed by: adslam3

I realized there was no guitar tab for this...so here ya go!
Really easy song

Tuning: Standard

Intro
e|--------------------------------------------------------------------------|
B|--------------------------------------------------------------------------|
G|------------------------------------------------Play this 2 times---------|
D|--------------------------------------------------------------------------|
A|----------5----------5----------5-----------------------------------------|
E|-0-0-3-0-5--0-0-3-0-5--0-0-3-0-5--5-3-5-3-5-3-0---------------------------|
Note: Those 3's might be 4's, try it out, both sounds good to me

Intro part 2
e|--------------------------------------------------------------------------|
B|--------------------------------------------------------------------------|
G|-----------------7-7-7-7--------------------------------------------------|
D|-2-2-2-2-7-7-7-7-7-7-7-7-7-7-7-7----play this 4 times---------------------|
A|-2-2-2-2-7-7-7-7-5-5-5-5-7-7-7-7------------------------------------------|
E|-0-0-0-0-5-5-5-5---------5-5-5-5------------------------------------------|

Verses (play this 2 times)
e|--------------------------------------------------------------------------|
B|--------------------------------------------------------------------------|
G|---------------------------------7-7-7-7-7-7-7-7--------------------------|
D|-2-2-2-2-2-2-2-2-7-7-7-7-7-7-7-7-7-7-7-7-7-7-7-7-7-7-7-7-7-7-7-7----------|
A|-2-2-2-2-2-2-2-2-7-7-7-7-7-7-7-7-5-5-5-5-5-5-5-5-7-7-7-7-7-7-7-7----------|
E|-0-0-0-0-0-0-0-0-5-5-5-5-5-5-5-5-----------------5-5-5-5-5-5-5-5----------|
PM................................................................

Verse Part 2 (0:31)
e|--------------------------------------------------------------------------|
B|--------------------------------------------------------------------------|
G|----------------------------------7-7-7-7-7-7-7-7-------------------------|
D|-2x-x-x----------7x-x-x-----------7-7-7-7-7-7-7-7-7-7-7-7-7-7-7-7---------|
A|-2x-x-x----------7x-x-x-----------5-5-5-5-5-5-5-5-7-7-7-7-7-7-7-7---------|
E|-0x-x-x----------5x-x-x---------------------------5-5-5-5-5-5-5-5---------|

Verse Part 3 (0:37)
e|--------------------------------------------------------------------------|
B|--------------------------------------------------------------------------|
G|---------------------------------7-7-7-7-7-7-7-7--------------------------|
D|-2-2-2-2-2-2-2-2-7-7-7-7-7-7-7-7-7-7-7-7-7-7-7-7-7-7-7-7-7-7-7-7----------|
A|-2-2-2-2-2-2-2-2-7-7-7-7-7-7-7-7-5-5-5-5-5-5-5-5-7-7-7-7-7-7-7-7----------|
E|-0-0-0-0-0-0-0-0-5-5-5-5-5-5-5-5-----------------5-5-5-5-5-5-5-5----------|

Pre-chorus [I guess] (0:42)
e|--------------------------------------------------------------------------|
B|--------------------------------------------------------------------------|
G|--------------------------------------------------------------------------|
D|-10-10-10-10-10/12\-------------------------------------------------------|
A|-10-10-10-10-10/12\-------------------------------------------------------|
E|-8--8--8--8--8-/10\-------------------------------------------------------|

Chorus (0:46)
e|--------------------------------------------------------------------------|
B|--------------------------------------------------------------------------|
G|-----------------7-7-7-7--------------------------------------------------|
D|-2-2-2-2-7-7-7-7-7-7-7-7-7-7-7-7----4 times-------------------------------|
A|-2-2-2-2-7-7-7-7-5-5-5-5-7-7-7-7------------------------------------------|
E|-0-0-0-0-5-5-5-5---------5-5-5-5------------------------------------------|
Then:
Intro Part 1 (or part 2 of you want)
Verse parts
Prechorus
Chorus (2 times)
Intro until end

AND that's it! There's a second guitar part on the intro 2nd and 3rd time
around but its hard to hear so I'll figure that out another day.

| /  slide up
| \  slide down
| h  hammer-on
| p  pull-off
| ~  vibrato
| +  harmonic
| x  Mute note
============================================================================
Related for Still Here Waiting tab