Song name
# A B C D E F G H I J K L M N O P Q R S T U V W X Y Z

Every Avenue - Tell Me Im A Wreck tab

Tell Me I'm A Wreck Solo
Every Avenue
Picture Perfect
Tabbed by: Ryan Bradley


  2:23 - 2:42
e[--------------------------------------------------------------------------]
B[-----------------------------------6----/10-11-10-------------------------]
G[-------------------------------5-7---5------------10----------------------]
D[-------3-0-/3--------3-0-/5--------------------------8--------------------]
A[--/3-5-----------3-5------------------------------------------------------]
D[--------------------------------------------------------------------------]

e[------------------8-8-8-5-5-5-5-5-8-8-8-----------------------------------]
B[---------------------------------------5-5-5-5-5--------------------------]
G[--------------------------------------------------------------------------]
D[-------3-5/7/8------------------------------------------------------------]
A[---3h5-------------------------------------------5-5-5-5-7-7-7-7-8-8-8-8--]
D[--------------------------------------------------------------------------]
                                                   . . . . . . . . . . . .
e[--------------------------------------------------------------------------]
B[--------------------------------------------------------------------------]
G[--------------------------------------10-10-10-10-------------------------]
D[----------7-7-7-7-8-8-8-8-10-10-10-10-------------------------------------]
A[--9-9-9-9-----------------------------------------------------------------]
D[--------------------------------------------------------------------------]
    . . . . . . . . . . . .  .  .  .  
 
/ = Slide
h = hammer on
p = pull off
. = palm mute
Tap to rate this tab
 
# A B C D E F G H I J K L M N O P Q R S T U V W X Y Z