Guitaretab - guitar tabs
Song name
# A B C D E F G H I J K L M N O P Q R S T U V W X Y Z

Everyday Jones - Fly Away tab

Artist: Everyday Jones
Song: Fly Away
Album: Here I Am

 Everyday Jones
Words and Music by: Alissa Jandt

Capo: 2

Tab numbers relative to capo

www.everydayjones.com

Intro 
               A    A                                        F#m  F#m   
E||----------------------|----------------------|----------------------|
B||----------------------|--0-------------------|------------8----8----|
G||------------4----4----|-------4---------4----|------------9----9----|
D||------------5----5----|------------5---------|------------9----9----|
A||------------5----5----|----------------------|--7----7----7----7----|
E||--3----3----3----3----|----------------------|----------------------|

----------------------||
--8-------------------||
-------9---------9----||
------------9---------||
----------------------||
----------------------||


Verse
               A    A                                        F#m  F#m   
E||----------------------|----------------------|----------------------|
B||----------------------|--0-------------------|------------8----8----|
G||------------4----4----|-------4---------4----|------------9----9----|
D||------------5----5----|------------5---------|------------9----9----|
A||------------5----5----|----------------------|--7----7----7----7----|
E||--3----3----3----3----|----------------------|----------------------|

----------------------||
--8-------------------||
-------9---------9----||
------------9---------||
----------------------||
----------------------||

[ Tab from: http://www.guitaretab.com/e/everyday-jones/189779.html ]
Pre-Chorus
     D       E       F#m     D       E       F#m     D       E     
E||-------|-------|-------|-------|-------|-------|-------|-------|
B||--1----|--3----|--0----|--1----|--3----|--0----|--1----|--3----|
G||--0----|--0----|--0----|--0----|--0----|--0----|--0----|--0----|
D||--2----|--4----|--2----|--2----|--4----|--2----|--2----|--4----|
A||--3----|--5----|--2----|--3----|--5----|--2----|--3----|--5----|
E||--3----|--5----|--0----|--3----|--5----|--0----|--3----|--5----|


  Bsus2 F#      D       E       D       E      
-------------|-------|-------|-------|-------||
--0-----0----|--1----|--3----|--1----|--3----||
--2-----1----|--0----|--0----|--0----|--0----||
--2-----2----|--2----|--4----|--2----|--4----||
--2-----2----|--3----|--5----|--3----|--5----||
--0-----0----|--3----|--5----|--3----|--5----||


Chorus
     B       F#m     E      
E||--0----|-------|--2----||
B||--0----|--0----|--3----||
G||--8----|--0----|--2----||
D||--9----|--2----|--0----||
A||--9----|--2----|-------||
E||--7----|--0----|-------||


Outro
     Bm      Bm/G    D       A5     
E||--0----|--0----|-------|--3----||
B||--1----|--1----|--1----|--3----||
G||--2----|--2----|--0----|--0----||
D||--2----|--3----|--2----|--0----||
A||-------|-------|--3----|--x----||
E||-------|-------|--3----|--3----||


[Verse]
A			F#m
All my life, all my love

A			F#m
All these things, I deserve

A			F#m
All this time, pass me by

A			  F#m
Fade away, in the blink of my




[Pre-Chorus]
D-E	 F#m
And I break

D	    E		  F#m
With each breath that I take

D       E          Bsus2 - F#
I will be so strong

          D - E
I will carry on





[Chorus]
B        F#m		E
I will fly away from you
All the pain I saw in truth and I

B	   F#m              E
Will not hide, I will not cry

	     B
But I will fly

	    F#m - E
But I will fly




[Verse]
A			 F#m
All these tears I will hide

A			  F#m
It will keep this hurt inside

A			F#m
All I have to hold on to

A			   F#m
It will keep me close to you





[Pre-Chorus]
D-E	 F#m
And I break

D	    E		  F#m
With each breath that I take

D       E          Bsus2 - F#
I will be so strong

          D - E
I will carry on





[Chorus - Outro]
I will fly away from you
All the pain I saw in truth
I won't hide
I won't cry
I will fly away from you
All the pain I saw in truth
I won't hide
Just want to hold you
Related for Fly Away tab