Everything Everything - Qwerty Finger tab

QWERTY finger intro

Intro and main riff

e|--------------11---12-11-9------7--9-9-7-9-9-7-9---------------------------|
B|---------9-12--------------------------------------------------------------|
G|---------------------------------------------------------------------------|
D|---9-11--------------------------------------------------------------------|
A|---------------------------------------------------------------------------|
E|---------------------------------------------------------------------------|

e|--------------11---16-12-11-9------7--9-9-7-9-9-7-9------------------------|
B|---------9-12--------------------------------------------------------------|
G|---------------------------------------------------------------------------|
D|---9-11--------------------------------------------------------------------|
A|---------------------------------------------------------------------------|
E|---------------------------------------------------------------------------|

Keep in playing this, and the riff played underneath that is:


e|---------------------------------------------------------------------------|
B|---------------------------------------------------------------------------|
G|---------------------------------------------------------------------------|
D|---------------------------------------------------------------------------|
A|---4--4-4-4-4-4-4--4--4-4-4-4-4-4------------------------------------------|
E|---0--2-2-0-2-2-0--0--2-2-0-2-2-0------------------------------------------|

Pretty simple

i will try to get the full version on soon
Tap to rate this tab
 
# A B C D E F G H I J K L M N O P Q R S T U V W X Y Z