Song name
# A B C D E F G H I J K L M N O P Q R S T U V W X Y Z

Everything - Hooch tab

Artist: Everything
Song: Hooch



 Intro:

   E|--------------------------------------|
   B|-7-7-7-------7-7-7--------------------|
   G|-7-7-7h8-----7-7-7h8------------------|
   D|---------9----------9-----------------|
   A|--------------------------------------|
   E|--------------------------------------|

Verse 1: x4

   E|-------7------------------------------|
   B|--------------------------------------|
   G|-7h8------9---------------------------|
   D|-----9--------------------------------|
   A|--------------------------------------|
   E|--------------------------------------|
  
Chorus: x8

   E|-------7------------------------------|
   B|--------------------------------------|
   G|-7h8------9---------------------------|
   D|-----9--------------------------------|
   A|--------------------------------------|
   E|--------------------------------------|
Tap to rate this tab
# A B C D E F G H I J K L M N O P Q R S T U V W X Y Z