Song name
# A B C D E F G H I J K L M N O P Q R S T U V W X Y Z

Exodus - Bonded By Blood tab

Exodus - Bonded By Blood Solo

1985 - Exodus (Bonded By Blood)
Tabbed by: The Casualty
Date: Sunday, March 11th, 2007


e|-15p12----12-15p12-15p12------12-15p12-15p12-----12--15p12-----12-15p12-15p12-----12-15p12-15p12-----12--|
b|-------15-----------------15-----------------15-------------15-----------------15-----------------15-----|
g|---------------------------------------------------------------------------------------------------------|
D|---------------------------------------------------------------------------------------------------------|
A|---------------------------------------------------------------------------------------------------------|
E|---------------------------------------------------------------------------------------------------------|

e|-15p12-----12-17p12-----12-15p12-----12-17p12-----12-|
b|-------15-----------15-----------15-----------15-----|
g|-----------------------------------------------------|
D|-----------------------------------------------------|
A|-----------------------------------------------------|
E|-----------------------------------------------------|

e|--------------------------|
b|--------------------------|
g|-15FB--15FB-15FB-15FB-----|
D|-14FB--14FB-14FB-14FB-----|
A|--------------------------|
E|--------------------------|

                   ~~~~~~~~
e|---------------------------|
b|---------------------------|
g|-------12-14-12-(12)-------|
D|-14------------------------|
A|---------------------------|
E|---------------------------|

                 Pinch-----|~~~~~~~~
e|---------------------------------|
b|---------------------------------|
g|-------12-14----12*-------12-----|
D|-14------------------------------|
A|---------------------------------|
E|---------------------------------|

e|--------------------------------------15p12----------|
b|----12-15p12----12-15p12----12-15p12-------------12--|
g|-15----------15----------15-------------------15-----|
D|-----------------------------------------------------|
A|-----------------------------------------------------|
E|-----------------------------------------------------|

e|-------15-12----------------------------|
b|-15p12----------15-12h15-15FB--15FB-----|
g|-------------15-------------------------|
D|----------------------------------------|
A|----------------------------------------|
E|----------------------------------------|

e|-15p12-14p11-13p10-12p9-11p8-10p7-9p6-9---|
b|------------------------------------------|
g|------------------------------------------|
D|------------------------------------------|
A|------------------------------------------|
E|------------------------------------------|


e|----------17-18-19-20-22FB---|------------------------------------------------------------|
b|-19-20-21--------------------|------------------------------------------------------------|
g|-----------------------------|------------------------------------------------------------|
D|-----------------------------|-7HB---7HB---7HB-7hB---7HB---7HB--7HB---r7-7p5-7------------|
A|-----------------------------|------------------------------------------------------------|
E|-----------------------------|------------------------------------------------------------|

e|---------------------------------------------|
b|-h20-----17-----17-17-17-20-17-15-17-15------|
g|------16---------------------------------16--|
D|---------------------------------------------|
A|---------------------------------------------|
E|---------------------------------------------|

e|---------------------------------------------------|
b|---------------------------------------------------|
g|-16-19-16--------16---------16---------------------|
D|----------19-19------19-19-----19-17---------------|
A|-------------------------------------19-17---------|
E|--------------------------------------------17-15--|

e|----------------------------------------------------------|
b|----------------------------------------------------------|
g|----------------------------------------------------------|
D|----------------------------------------------------------|
A|----------------------------------------------------------|
E|-17--17HB-----r15--17--17HB------r15--17--17HB------15----|

e|------------------------------------------|
b|---------------------------20-------------|
g|-----------------------------\------/-----|
D|----------------------14------\----/------|
A|-------------------------------\---/------|
E|-17--17HB-----r15--17-----------\--/------|
                                   \/
                                   -2

A lot of trem dives in this next part!

Repeat this bar two times.        ~~~~~~~~~~~~~
e||---------------------||------------------------|
b||o-19-----16----19---o||-19---(19)--------------|
g||----\----/-\---/-----||---\---/----------------|
D||----\---/--\--/------||---\--/-----------------|
A||o----\-/----\-/-----o||----\-/-----------------|
E||------\/-----\/------||-----\/-----------------|
         -1     -1             -1-----------------|

e|------------------------|----------------------------------------|
b|------------------------|----------------------------------7-----|
g|------------------------|----------------------------------------|
D|-7----4--4--------7-9---|--9FB-----r9--7-9-9FB-------------------|
A|-7----4--4------9-------|----------------------------------------|
E|------------------------|----------------------------------------|

e|-------------------------------------|
b|-10p7-----10p7-10p7-----10p7-7h10p7--|
g|------9p6-----------9p6--------------|
D|-------------------------------------|
A|-------------------------------------|
E|-------------------------------------|

p = Pull-off
h = Hammer on
HB = Half bed
FB = Full bend
r = Release
* = Pinch harmonic
~ = Hold note


This is an easy solo, but only if you're fast enough. ;)

Have fun, and this was the best I could do, so cut me some slack.
Tap to rate this tab
# A B C D E F G H I J K L M N O P Q R S T U V W X Y Z