Song name
# A B C D E F G H I J K L M N O P Q R S T U V W X Y Z

Exodus - Cajun Hell tab

Help us improve GuitareTab! Take a short survey!
Cajun hell
by exodus
of the album "fabulous disaster".
if you have any questions or find something wrong email me at ronnymarks@earthlink.net

Little intro lick clean with no distrion.
------------------------------------------|
---1/7------7-------7---------------------|
--------7-------5-------------------------|
------------------------------------------|
------------------------------------------|
------------------------------------------|

Rythem guitar starts out clean then gets distorted
-0-0-6-0-3-0-5-x3--7-6-5-3-2-1-0------------|
-2---9---5---7-x3---------------------------|
-2---9---5---7-x3---------------------------|
--------------------------------------------|
--------------------------------------------|
--------------------------------------------|

This lick is played of the rymthem guitar starts out clean then distorted
-12------12------12------12---------12-------------|
------------------------------------13-------------|
----14------14-------14-----14------13-------------|
--------16------15------14-------------------------|
---------------------------------------------------|
-------------------------------12------------------|

I'll get back to the rest of it later
Related for Cajun Hell tab