Song name
# A B C D E F G H I J K L M N O P Q R S T U V W X Y Z

Exploited - War tab

------------------------------ Guitar tabs ---------------------------------

       Bands:The Exploited - Song: War - Album: troops of tomorrow

Intro / Main Riff     
E[--------------------------------|
B[--------------------------------|
G[---------------4----------------|
D[---------------2---------5------|
A[-2-2-2-2-2-2-2---2-2-2-2---5-7--|
E[-0-0-0-0-0-0-0---0-0-0-0--------|
   [----PM-----]   [--PM-]  
  
E[--------------------------------------------------------------|
B[--------------------------------------------------------------|
G[---------------4------------------------------4---------------|
D[---------------2---------5--------------------2---------5-----|
A[-2-2-2-2-2-2-2---2-2-2-2---5-7--2-2-2-2-2-2-2---2-2-2-2---5-7-|
E[-0-0-0-0-0-0-0---0-0-0-0--------0-0-0-0-0-0-0---0-0-0-0-------|16x
   [----PM-----]   [--PM-]     ~~~[----PM-----]   [--PM-]     ~~~
 
Verse Riff
E-------------------|
B-------------------|
G---------------4---|
D---------------2---|
A-2-2-2-2-2-2-2-----|
E-0-0-0-0-0-0-0-----|
  [----PM-----]
 
Chorus
E-----------------|
B-----------------|
G-5---\4---/7-----|
D-5---\4---/7-----|
A-3---\2---/5-----|
E-----------------| Repeat Verse Riff 2 X

 Repeat Chorus Riff
 Repeat Main Riff 2 X
 Repeat Verse
 Repeat Chorus

 Last time before guitar solo.
E-----------------|
B-----------------|
G-5---\4---/7-----|
D-5---\4---/7-----|
A-3---\2---/5-----|
E-3---\2---/5-----|

 Backing for guitar solo is verse  8 X
 Repeat Chorus 
 Repeat Verse using intro harmonys.
 Repeat Chorus
E------------------------|
B------------------------|
G-5---\4---/7------------|
D-5---\4---/7----2-2-2-2-|
A-3---\2---/5----2-2-2-2-|
E----------------0-0-0-0-|

Lyric:
sometimes i want to borrow 
watching violence, after fights 
can she go to war tomorrow 
to guarantee his rights 

War war we don't need a war 
[repeat]

you must be mad 
that you sent us to war 
i said if you sit down 
we don't need to go to war 

War war we don't need a war 
[repeat] 

down the west in the crowd 
with those of you who'll go 
we're looking for a slag 
something to give us a fall 

whenever we get in a cage 
surely it does count 
he's going to start a war 
no one can survive 

War war we don't need a war 
[repeat] 


---------------------------------------------------------------------------

Tap to rate this tab
# A B C D E F G H I J K L M N O P Q R S T U V W X Y Z