Song name
# A B C D E F G H I J K L M N O P Q R S T U V W X Y Z

Exploited - Exploited Barmy Army tab

-------------------------------------------------------------------------------
			   Exploited barmy army - Exploited
-------------------------------------------------------------------------------
Tabbed by:me
Email:newborn84@abv.bg

Tuning:

e|---------------------------------------|
B|---------------------------------------|
G|--5-5----------------------------------|
D|--5-5-5--7-----------------------------|
A|--2-2-5--7-----------------------------|
E|------3--5-----------------------------|

e|---------------------------------------|
B|---------------------------------------|
G|-------5-------------------------------|
D|-------5-5-7---------------------------|
A|--222222-5-7---------------------------|
E|---------3-5---------------------------|



| /  slide up
| \  slide down
| h  hammer-on
| p  pull-off
| ~  vibrato
| +  harmonic
| x  Mute note
========================================
Tap to rate this tab
 
# A B C D E F G H I J K L M N O P Q R S T U V W X Y Z