Song name
# A B C D E F G H I J K L M N O P Q R S T U V W X Y Z

Extreme Noise Terror - Murder tab

-------------------------------------------------------------------------------
			     MURDER - Extreme Noise Terror
-------------------------------------------------------------------------------
Tabbed by: James Stoten
Email: james_stoten@hotmail.co.uk

Tuning: Standard (E A D G B E)


      S S S S S S S S S S S S S S S S    S S S S S S S S S S S S S S S S  
E||-----------------------------------|----------------------------------|
B||-----------------------------------|----------------------------------|
G||*----------------------------------|----------------------------------|
D||*----------------------------------|----------------------------------|
A||---7-9-9-9-9-9-9-9-9-9-9-9-9-9-9-9-|--7-9-9-9-9-9-9-9-9-9-9-9-9-9-9-9-|
E||---5-7-7-7-7-7-7-7-7-7-7-7-7-7-7-7-|--5-7-7-7-7-7-7-7-7-7-7-7-7-7-7-7-|


  S S S S S S S S S S S S S S S S    S S S S S S S S S S S S S S S S  3x
----------------------------------|-----------------------------------||
----------------------------------|-----------------------------------||
----------------------------------|----------------------------------*||
----------------------------------|----------------------------------*||
--7-9-9-9-9-9-9-9-9-9-9-9-9-9-9-9-|--5-5-5-5-5-5-5-5-4-4-4-4-4-4-4-4--||
--5-7-7-7-7-7-7-7-7-7-7-7-7-7-7-7-|--3-3-3-3-3-3-3-3-2-2-2-2-2-2-2-2--||


   S S S S S S S S S S S S S S S S    S S S S S S S S S S S S S S S S  
-----------------------------------|----------------------------------|
-----------------------------------|----------------------------------|
*----------------------------------|----------------------------------|
*--7-7-7-7-7-7-7-7-7-7-7-7-7-7-7-7-|----------------------------------|
---5-5-5-5-5-5-5-5-5-5-5-5-5-5-5-5-|--8-8-8-8-8-8-8-8-8-8-8-8-8-8-8-8-|
-----------------------------------|--6-6-6-6-6-6-6-6-6-6-6-6-6-6-6-6-|


  S S S S S S S S S S S S S S S S    S S S S S S S S S S S S S S S S    
----------------------------------|-----------------------------------||
----------------------------------|-----------------------------------||
----------------------------------|----------------------------------*||
----------------------------------|----------------------------------*||
--7-7-7-7-7-7-7-7-7-7-7-7-7-7-7-7-|--5-5-5-5-5-5-5-5-5-5-5-5-5-5-5-5--||
--5-5-5-5-5-5-5-5-5-5-5-5-5-5-5-5-|--3-3-3-3-3-3-3-3-3-3-3-3-3-3-3-3--||


   S S S S S S S S S S S S S S S S    S S S S S S S S S S S S S S S S  
-----------------------------------|----------------------------------|
-----------------------------------|----------------------------------|
*----------------------------------|----------------------------------|
*----------------------------------|----------------------------------|
---7-9-9-9-9-9-9-9-9-9-9-9-9-9-9-9-|--9-9-9-9-9-9-9-9-9-9-9-9-9-9-9-9-|
---5-7-7-7-7-7-7-7-7-7-7-7-7-7-7-7-|--7-7-7-7-7-7-7-7-7-7-7-7-7-7-7-7-|


  S S S S S S S S S S S S S S S S    S S S S S S S S S S S S S S S S  3x
----------------------------------|-----------------------------------||
----------------------------------|-----------------------------------||
----------------------------------|----------------------------------*||
----------------------------------|----------------------------------*||
--9-9-9-9-9-9-9-9-9-9-9-9-9-9-9-9-|--5-5-5-5-5-5-5-5-4-4-4-4-4-4-4-4--||
--7-7-7-7-7-7-7-7-7-7-7-7-7-7-7-7-|--3-3-3-3-3-3-3-3-2-2-2-2-2-2-2-2--||


   S S S S S S S S S S S S S S S S    S S S S S S S S S S S S S S S S  
-----------------------------------|----------------------------------|
-----------------------------------|----------------------------------|
*----------------------------------|----------------------------------|
*--7-7-7-7-7-7-7-7-7-7-7-7-7-7-7-7-|----------------------------------|
---5-5-5-5-5-5-5-5-5-5-5-5-5-5-5-5-|--8-8-8-8-8-8-8-8-8-8-8-8-8-8-8-8-|
-----------------------------------|--6-6-6-6-6-6-6-6-6-6-6-6-6-6-6-6-|


  S S S S S S S S S S S S S S S S    S S S S S S S S S S S S S S S S    
----------------------------------|-----------------------------------||
----------------------------------|-----------------------------------||
----------------------------------|----------------------------------*||
----------------------------------|----------------------------------*||
--7-7-7-7-7-7-7-7-7-7-7-7-7-7-7-7-|--5-5-5-5-5-5-5-5-5-5-5-5-5-5-5-5--||
--5-5-5-5-5-5-5-5-5-5-5-5-5-5-5-5-|--3-3-3-3-3-3-3-3-3-3-3-3-3-3-3-3--||


  Q    E  Q    E  E  E     E  E  Q    E  E  E  E   
------------------------|-------------------------|
------------------------|-------------------------|
------------------------|-------------------------|
------------------------|-------------------------|
--9----9--9----9--9--7--|--9----------9--7--5--4--|
--7----7--7----7--7--5--|--7----------7--5--3--2--|


    S S S S S S S S S S S S S S S S    S S S S S S S S E  E  E  E   
|-----------------------------------|------------------------------|
|-----------------------------------|------------------------------|
|*----------------------------------|------------------------------|
|*----------------------------------|------------------------------|
|---4-4-4-4-4-4-4-4-4-4-4-4-4-4-4-4-|--4-4-4-4-4-4-4-4-5--4--5--4--|
|---2-2-2-2-2-2-2-2-2-2-2-2-2-2-2-2-|--2-2-2-2-2-2-2-2-3--2--3--2--|


  S S S S S S S S S S S S S S S S    S S S S S S S S E  E  E  E   4x
----------------------------------|-------------------------------||
----------------------------------|-------------------------------||
----------------------------------|------------------------------*||
----------------------------------|------------------------------*||
--4-4-4-4-4-4-4-4-4-4-4-4-4-4-4-4-|--7-7-7-7-7-7-7-7-5--4--5--4---||
--2-2-2-2-2-2-2-2-2-2-2-2-2-2-2-2-|--5-5-5-5-5-5-5-5-3--2--3--2---||


   S S S S S S S S S S S S S S S S    S S S S S S S S S S S S S S S S  
-----------------------------------|----------------------------------|
-----------------------------------|----------------------------------|
*----------------------------------|----------------------------------|
*----------------------------------|----------------------------------|
---7-9-9-9-9-9-9-9-9-9-9-9-9-9-9-9-|--9-9-9-9-9-9-9-9-9-9-9-9-9-9-9-9-|
---5-7-7-7-7-7-7-7-7-7-7-7-7-7-7-7-|--7-7-7-7-7-7-7-7-7-7-7-7-7-7-7-7-|


  S S S S S S S S S S S S S S S S    S S S S S S S S S S S S S S S S  3x
----------------------------------|-----------------------------------||
----------------------------------|-----------------------------------||
----------------------------------|----------------------------------*||
----------------------------------|----------------------------------*||
--9-9-9-9-9-9-9-9-9-9-9-9-9-9-9-9-|--5-5-5-5-5-5-5-5-4-4-4-4-4-4-4-4--||
--7-7-7-7-7-7-7-7-7-7-7-7-7-7-7-7-|--3-3-3-3-3-3-3-3-2-2-2-2-2-2-2-2--||


   S S S S S S S S S S S S S S S S    S S S S S S S S S S S S S S S S  
-----------------------------------|----------------------------------|
-----------------------------------|----------------------------------|
*----------------------------------|----------------------------------|
*--7-7-7-7-7-7-7-7-7-7-7-7-7-7-7-7-|----------------------------------|
---5-5-5-5-5-5-5-5-5-5-5-5-5-5-5-5-|--8-8-8-8-8-8-8-8-8-8-8-8-8-8-8-8-|
-----------------------------------|--6-6-6-6-6-6-6-6-6-6-6-6-6-6-6-6-|


  S S S S S S S S S S S S S S S S    S S S S S S S S S S S S S S S S  3x
----------------------------------|-----------------------------------||
----------------------------------|-----------------------------------||
----------------------------------|----------------------------------*||
----------------------------------|----------------------------------*||
--7-7-7-7-7-7-7-7-7-7-7-7-7-7-7-7-|--5-5-5-5-5-5-5-5-5-5-5-5-5-5-5-5--||
--5-5-5-5-5-5-5-5-5-5-5-5-5-5-5-5-|--3-3-3-3-3-3-3-3-3-3-3-3-3-3-3-3--||


  Q    E  Q    E  E  E    
------------------------||
------------------------||
------------------------||
------------------------||
--9----9--9----9--9--7--||
--7----7--7----7--7--5--||




Duration Legend
---------------
Q - quarter
E - 8th
S - 16th

http://www.extremenoiseterror.co.uk/

http://en.wikipedia.org/wiki/Extreme_Noise_Terror
Tap to rate this tab
 
# A B C D E F G H I J K L M N O P Q R S T U V W X Y Z