Song name
# A B C D E F G H I J K L M N O P Q R S T U V W X Y Z

Eydie Gorme Y Trio Los Panchos - Sabor A Mi tab

e|--10-11-12-13---11-13-11-10----1010----10101010--|
B|----------------------------13-------------------|
G|------------------------------------12-----------|
D|-------------------------------------------------|
A|-------------------------------------------------|
E|-------------------------------------------------|


e|-----10-11-13-11-10----10-11-13-11-10-----------------------------------|
B|--13----------------13----------------13-11-10-11-12-13----11s13s13s13--|
G|--------------------------------------------------------10--------------|
D|------------------------------------------------------------------------|
A|------------------------------------------------------------------------|
E|------------------------------------------------------------------------|


e|--------10-11-10h11p10---10----------------------|
B|--11-13----------------13--13-11-10----10-11-----|
G|------------------------------------12-----------|
D|-------------------------------------------------|
A|-------------------------------------------------|
E|-------------------------------------------------|


e|--------------10-11-13-11-10h11p10---10---------------------10----------|
B|-----10-11-13----------------------13--13-11-10----10-11-13-------------|
G|--12--------------------------------------------12----------------------|
D|------------------------------------------------------------------------|
A|------------------------------------------------------------------------|
E|------------------------------------------------------------------------|


e|----10---------------2-0-------------------------|
B|--13--13-11-10-11----0-0-------------------------|
G|---------------------0-0-------------------------|
D|---------------------0-0-------------------------|
A|-------------------------------------------------|
E|-------------------------------------------------|
Tap to rate this tab
# A B C D E F G H I J K L M N O P Q R S T U V W X Y Z