Song name
# A B C D E F G H I J K L M N O P Q R S T U V W X Y Z

Faber Drive - By Your Side tab

By Your Side - Faber Drive

Chords Used:
G - 320033
E2 - 200033
D - x00232
Cadd2 - x32033
Em7 - 022033
Am - x02210

Intro:
Guitar1
|---------------------------------------------------------------------------|
|-----------12-------------10--------------8-------------7-------------3----|
|----0----0------0---0---0------0---0---0-----0---0---0------0---0---0----0-|
|---------------------------------------------------------------------------|
|-10---10-----10---9---9------9---7---7-----7---5---5------5---3---3-----3--|
|---------------------------------------------------------------------------|

|--------------------------------------------------------|
|------------3------------------3------5-------7---------|
|----0----0-------0----0----0------0-------0------0------|
|--------------------------------------------------------|
|-3----3-------3----5----5------5-------5------5---------|
|--------------------------------------------------------|


Verse1:
|---------------------------------------------------------------------------|
|-----------12-------------10-----------8-------------7--------------3------|
|----0----0------0---0---0----0---0---0-----0---0---0-----0---0---0------0--|
|---------------------------------------------------------------------------|
|-10---10-----10---9---9----9---7---7-----7---5---5-----5---3---3------3----|
|---------------------------------------------------------------------------|

|--------------------------------------------------------|
|------------3------------------3------5-------7---------|
|----0----0-------0----0----0------0-------0------0------| (2x)
|--------------------------------------------------------|
|-3----3-------3----5----5------5-------5------5---------|
|--------------------------------------------------------|
I turn off the lights and let you sleep
Just close your eyes, relax and breathe in slowly, no, don't feel lonely'
Cause I'll be right here by your side
If you should awake into the night keep dreaming'Cause I'll be keeping your 


Chorus:
G D        Cadd2        
Heart in mine
                             D
Don't you know I'll always be near?
G        D          Cadd2
Even in the hardest time
                               D
Don't you know I'm always right here?
G                 D
When you're feeling lost 
Em7       Cadd2           Am
Don't give up because it's alright
        Cadd2           D(let ring)             G
When you close your eyes I'm by your side

Verse2:
Guitar1
|---------------------------------------------------------------------------|
|-----------12-------------10-------------8------------7--------------3-----|
|----0----0------0---0---0------0---0---0----0---0---0-----0---0---0-----0--|
|---------------------------------------------------------------------------|
|-10---10-----10---9---9------9---7---7-----7---5---5----5---3---3-----3----|
|---------------------------------------------------------------------------|

|---------------------------------------------------------|
|------------3-----------------3------5-------7-----------|
|----0----0-------0----0----0------0-------0-------0------| (2x)
|---------------------------------------------------------|
|-3----3-------3----5----5------5-------5-------5---------|
|---------------------------------------------------------|

Guitar2:
G           E2                 Em7              D
Remember the days when we would drive, into the night
              Cadd2               D
We'd watch the skies of summer so full of color
   G            E2                   Em7
And remember the days when waves would roll
          D                 Cadd2
Up on the beach to touch our toes on soft sand    
     D                      
My hand in yours and your 


Chorus:
G D      Cadd2  
Heart in mine
                              D
Don't you know I'll always be near?
G      D            Cadd2
Even in the hardest time
                               D
Don't you know I'm always right here?   
G                D
When you're feeling lost '
Em7       Cadd2           Am
Don't give up because it's alright
        Cadd2         D 
When you close your eyes I'm by your side


Bridge:
Em7                     G              D        Cadd2
   Laying flat on our backs, we stared up at the sky
                       Em7             G        Cadd2
We were laughing so hard, we had tears in our eyes
     D          Em7           G      Cadd2
Our future's before us, our worries behind
               D
Just you and I


|---------------------------------------------------------------------------|
|------------12------------12-------------12-------------10-------------8---|
|------0---0------0--0---0------0---0---0------0---0---0-----0---0---0------|
|---------------------------------------------------------------------------|
|-2s10--10-----10--10--10----10--10--10-----10---9---9-----9---7---7--------|
|---------------------------------------------------------------------------|
                                            I turn off the lights and let you sleep
        
|----------------------------x----|
|------------------7---------3----|
|----0----0----0-------0-----0----|
|----------------------------0----|
|-7----5----5-------5--------3----|
|----------------------------x----|
Just close your eyes, relax and dream.

Chorus:
       D     
And keep your 
 G D       Cadd2          D
Heart in mine
G        D                      Cadd2
Even in the hardest time


G            D
When you're feeling lost '
Em7        Cadd2           Am
Don't give up because it's alright,
     Cadd2        D     
It's alright
G            D
When you're feeling lost '
Em7        Cadd2           Am
Don't give up because it's alright
         Cadd2      D   
When you close your eyes I'm by your side

Outro:
|---------------------------------------------------------------------------|
|-----------12-------------10-------------8------------7--------------3-----|
|----0----0------0---0---0------0---0---0----0---0---0-----0---0---0------0-|
|---------------------------------------------------------------------------|
|-10---10-----10---9---9------9---7---7----7---5---5-----5---3---3------3---|
|---------------------------------------------------------------------------|
        I'm by your side
        
|-------------------------------3---|
|--5------------7-------------------|
|------0----0--------0----0---------|
|-----------------------------------|
|--5-----5------5------5------------|
|-------------------------------3---|
Tap to rate this tab
# A B C D E F G H I J K L M N O P Q R S T U V W X Y Z