Guitaretab - guitar tabs
Song name
# A B C D E F G H I J K L M N O P Q R S T U V W X Y Z

Failure - Daylight tab

DAYLIGHT - Failure

Tuning Eb Ab Db Gb Bb Eb (half step down)

Tabbed By AlexXx Anecsey
Any comments to anecsey@hotmail.com


Its quite accurate,...so do your work.


Pre solo

(during 2 chorus)
DELAY Y WAH
d#|---------------------|---------------------------------------------------|
A#|---------------------|---------------------------------------------------|
F#|--999999-8--8--8/999-|X2--8/99999999-888888-666666-44444444--------------|x2
C#|----------99-9-------|---------------------------------------------------|
G#|---------------------|---------------------------------------------------|
D#|---------------------|---------------------------------------------------|

solo

delay

D#|16^------------------------------16^-----------------------------16^-|--16^--18^^^^^^^-|
A#|----19-17-16----16-17-16-------16----19-17-16----16-17-16------16----|-----------------|
F#|--------------16--------16---16----------------16--------16--16------|-X4--------------|
C#|---------------------------------------------------------------------|-----------------|
G#|---------------------------------------------------------------------|-----------------|
D#|---------------------------------------------------------------------|-----------------|

[ Tab from: http://www.guitaretab.com/f/failure/167847.html ]
   WAH
d#|----------------------------------------------------------------------------------------|
A#|-------------------------------------------------------------------------------17^^^^^^-|
F#|----------------------------------------------------------------------------------------|
C#|----------------------------------------------------------------------------------------|
G#|--10-10-10-10--9-9-9-9-9---12-12-12-12--11-11-11-11----10-10-10-10--9-9-9-9-------------|
D#|----------------------------------------------------------------------------------------|


   DELAY
d#|----11-12----11-12--12-11-9|-----19-19-19-19--12-12-12-12-12---19-19-19-19--12-12-12-12|
A#|--12-------12--------------|-----------------------------------------------------------|
F#|---------------------------|-X3--------------------------------------------------------|
C#|---------------------------|-----------------------------------------------------------|
G#|---------------------------|-----------------------------------------------------------|
D#|---------------------------|-----------------------------------------------------------|

   DELAY
D#|-17-17^^^^^^ 17|-----19-19^^^^^^^^---------------------------------------|
A#|---------------|---------------------------------------------------------|
F#|---------------|-x3------------------------------------------------------|
C#|---------------|---------------------------------------------------------|
G#|---------------|---------------------------------------------------------|
D#|---------------|---------------------------------------------------------|
   DELAY
D#|--12-12-12-12-12-11-11-11-11-11-9-9-9-9-9-9-7-7-7-7-7-7------7~---------|
A#|------------------------------------------------------------------------|
F#|------------------------------------------------------------------------|
C#|------------------------------------------------------------------------|
G#|------------------------------------------------------------------------|
D#|------------------------------------------------------------------------|
Related for Daylight tab