Song name
# A B C D E F G H I J K L M N O P Q R S T U V W X Y Z

Fall Out Boy - Sugar Were Goin Down Acoustic tab

Artist- Fall Out Boy
Song- Sugar We're Goin' Down (acoustic)
Tuning:Drop D (DADGBe)

X-Dead String
.-Palm Muting
~-Let Note Ring
/-Slide Down

Intro (Dead string the first part) 


e|-X-X-X-------------------------------------------|
B|-X-X-X-------------------------------------------|
G|-X-X-X-------------------------------------------|
D|-X-X-X-00000000-55555555-99999999-55555555-------|
A|-X-X-X-00000000-55555555-99999999-55555555-------|
D|-X-X-X-00000000-55555555-99999999-55555555-------|

e|-X-X-X--2-0-3-0-2--5-5-5-5-5--2-0-3-0-2-----------------|
B|-X-X-X--3-3-3-3-3--7-5-8-5-7--3-3-3-3-3-----------------|
G|-X-X-X--2-2-2-2-2--7-7-5-7-7--4-4-4-4-4-----------------|
D|-X-X-X--0-0-0-0-0--5-5-5-5-5--4-4-4-4-4--55555555-------|
A|-X-X-X--x-x-x-x-x--5-5-5-5-5--2-2-0-2-2--55555555-------|
D|-X-X-X--x-x-x-x-x--x-x-x-x-x--x-x-x-x-x--55555555-------|

Verse
"Am I more than you bargained...."
e|-------------------------------------------|
B|-------------------------------------------|
G|-------------------------------------------|
D|-------------------------------------------| X 2
A|-------------------------------------------|
D|0-0-0-0--5-5-5-5--9-9-9-9--5-5-5-5---------|


"Lie in the grass next..."
e|----------------------------------------|
B|----------------------------------------|
G|---------7-7-7-7--7-7-7-7--7-7-7-7------|
D|0-0-0-0--0-0-0-0--0-0-0-0--0-0-0-0------|
A|0-0-0-0--X-X-X-X--X-X-X-X--X-X-X-X------|
D|0-0-0-0--5-5-5-5--9-9-9-9--5-5-5-5------|


Pre Chorus 
"Drop A Heart..."
e|------------------------------------------------------------------------|
B|------------------------------------------------------------------------|
G|------------------------------------------------------------------------|
D|444444-555555555-777777-9999999999-101010101010-999999999-555555-555555-|
A|444444-555555555-777777-9999999999-101010101010-999999999-555555-555555-|
D|444444-555555555-777777-9999999999-101010101010-999999999-555555-555555-|
  ...... ......... ...... .......... ............ ......... ......

Chorus
"Were Goin Down, Down."
e|-X-X-X--------------------------------------|
B|-X-X-X--------------------------------------|
G|-X-X-X--------------------------------------|
D|-X-X-X-00000000-55555555-99999999-55555555--|
A|-X-X-X-00000000-55555555-99999999-55555555--|
D|-X-X-X-00000000-55555555-99999999-55555555--|

2nd part of chorus

"Were goin Down, Down.."
e|-X-X-X--------------------------------------------------------------------------|
B|-X-X-X--------------------------------------------------------------------------|
G|-X-X-X-----7-7------7-7-----7-7-----7-7------11-11---11-11------7-7-----7-7-----|
D|-X-X-X-0-0-X-X-0-0--X-X-5-5-X-X-5-5-X-X--9-9-X--X-9-9-X--X--5-5-X-X-5-5-X-X-----|
A|-X-X-X-0-0-5-5-0-0--5-5-5-5-5-5-5-5-5-5--9-9-9--9-9-9-9--9--5-5-5-5-5-5-5-5-----|
D|-X-X-X-0-0-----0-0------5-5-----9-9------9-9------5-5-------5-5-----5-5---------|

Pre-Verse
e|------------------------------------------------------------------------|
B|------------------------------------------------------------------------|
G|------------------------------------------------------------------------|
D|444444-555555555-777777-9999999999-101010101010-999999999-555-555555555-|
A|444444-555555555-777777-9999999999-101010101010-999999999-555-555555555-|
D|444444-555555555-777777-9999999999-101010101010-999999999-555-555555555-|
  .....  .......   .....  ........   ..........   .......   ...

Verse 2
"Is This More than you bargained....."
e|----------------------------------------|
B|----------------------------------------|
G|----------------------------------------|
D|----------------------------------------| X 2
A|----------------------------------------|
D|0-0-0-0--5-5-5-5--9-9-9-9--5-5-5-5------|



"Isn't it messed up how I'm just..."
e|----------------------------------------|
B|----------------------------------------|
G|---------7-7-7-7--7-7-7-7--7-7-7-7------|
D|0-0-0-0--0-0-0-0--0-0-0-0--0-0-0-0------|
A|0-0-0-0--X-X-X-X--X-X-X-X--X-X-X-X------|
D|0-0-0-0--5-5-5-5--9-9-9-9--5-5-5-5------|

Pre Chorus
"Drop A Heart..."
e|------------------------------------------------------------------------|
B|------------------------------------------------------------------------|
G|------------------------------------------------------------------------|
D|444444-555555555-777777-9999999999-101010101010-999999999-555555-555555-|
A|444444-555555555-777777-9999999999-101010101010-999999999-555555-555555-|
D|444444-555555555-777777-9999999999-101010101010-999999999-555555-555555-|
  ...... ......... ...... .......... ............ ......... ......

Chorus
"Were Goin Down, Down.."
e|------------------------------------------------------------------------|
B|------------------------------------------------------------------------|
G|------------------------------------------------------------------------|
D|---00000000-55555555-99999999-55555555----------------------------------|
A|---00000000-55555555-99999999-55555555----------------------------------|
D|---00000000-55555555-99999999-55555555----------------------------------|


"Were goin Down, Down.."
e|-X-X-X------------------------------------------------------------------|
B|-X-X-X------------------------------------------------------------------|
G|-X-X-X----77----77----77----77----11-11---11-11----77----77-------------|
D|-X-X-X-00-XX-00-XX-55-XX-55-XX-99-X--X-99-X--X--55-XX-55-XX-------------|
A|-X-X-X-00-55-00-55-55-55-55-55-99-9--9-99-9--9--55-55-55-55-------------|
D|-X-X-X-00----00----55----55----99------99-------55----55----------------|

Bridge
"Down, Down in an earlier round.."
e|------0~----3~----0~----3~----33----------------------------------------|
B|------5~----0~----5~----0~----00----------------------------------------|
G|------7~----0~----7~----0~----00----------------------------------------|
D|-2222-0~----0~----0~----0~----00----------------------------------------| 
A|-2222-0~----5~----0~----5~----55----------------------------------------|
D|-2222-0~----5~----0~----5~----55----/12---------------------------------|
   ....

"Were goin down down.."
e|------------------------------------------------------------------------|
B|------------------------------------------------------------------------|
G|------------------------------------------------------------------------|
D|----00000--00000--55555--55555--99999--99999--55555--55555--------------|
A|----00000--00000--55555--55555--99999--99999--55555--55555--------------|
D|----00000--00000--55555--55555--99999--99999--55555--55555--------------|

Chorus
"Were goin down, down in an earlier..."
e|---2-2-2-2-2--5-5-5-5-5--2-2-2-2-2--------------------------------------|
B|---3-0-3-0-3--7-5-7-5-7--3-2-3-2-3--------------------------------------|
G|---2-2-2-2-2--7-7-5-7-7--4-4-4-4-4--------------------------------------|
D|---0-0-0-0-0--5-5-5-5-5--4-4-4-4-4--------------------------------------|
A|---x-x-x-x-x--5-5-5-5-5--2-2-0-2-2--------------------------------------|
D|---x-x-x-x-x--x-x-x-x-x--x-x-x-x-x--------------------------------------|

Outro 
"A Loaded gun complex, cock it and pull it". 
e|------0~----------------------------------------------------------------|
B|------5~777558885577755-7775588855777557~-------------------------------|
G|------7~777777777777777-7777777777777777~-------------------------------|
D|-2222-0~000000000000000-0000000000000000~-------------------------------| 
A|-2222-0~----------------------------------------------------------------|
D|-2222-0~----------------------------------------------------------------|
Tap to rate this tab
# A B C D E F G H I J K L M N O P Q R S T U V W X Y Z