Song name
# A B C D E F G H I J K L M N O P Q R S T U V W X Y Z

Fall Out Boy - Lake Effect Kid tab

Iam pretty sure that most parts are wrong!
Please check this video:

http://www.youtube.com/watch?v=Nt9oc3fC_xI

i just want that we all make a better tab for this song !
And hopefully we have the right tabs soon !
so post your videos, post your tabs.. iam looking forward to see some stuff soon...

Intro:
e|-------------------------------|
b|-------------------------------|
g|-------------------------------|
d|-----7-5--7-5--7-5--7-5-3------|
a|--3-------------------------3--|
E|-------------------------------| 2x

The 3time the end is played in a different way..dont know it!

Verse:
e|-------------------------------------------------|
b|-------------------------------------------------|
g|-------------------------------------------------|
d|-8888888888--7777777777--5555555555-3333333333---|
a|-8888888888--7777777777--5555555555-3333333333---|
E|-6666666666--5555555555--3333333333-1111111111---|  2x

Pre-Chorus:
e|-----------------|
b|-----------------|
g|-----------------|
d|-8~ -7~ -5~ -3~ -|
a|-8~ -7 ~-5~ -3~ -|
E|-6~ -5~ -5~ -1~ -| 2x

Chorus:
e|------------------------------------------------------------------|
b|------------------------------------------------------------------|
g|-----------------5-55-555-5-5-5-----------------------------------|
d|-3-33-333-3-3-3--5-55-555-5-5-5--7-77-777-7-7-7--5-55-555-5-5-5---|
a|-3-33-333-3-3-3--3-33-333-3-3-3--7-77-777-7-7-7--5-55-555-5-5-5---|
E|-1-11-111-1-1-1------------------5-55-555-5-5-5--3-33-333-3-3-3---|

Intro:
e|--------------------------------------|
b|--------------------------------------|
g|--------------------------------------|
d|-----7-5--7-5--7-5--7-5-3-------------|
a|--3-----------------------------3-----|
E|--------------------------------------| 2x

Verse:
e|-------------------------------------------------|
b|-------------------------------------------------|
g|-------------------------------------------------|
d|-8888888888--7777777777--5555555555-3333333333---|
a|-8888888888--7777777777--5555555555-3333333333---|
E|-6666666666--5555555555--3333333333-1111111111---|  2x

Pre-Chorus:
e|-------------------|
b|-------------------|
g|-------------------|
d|-8~ -7~ -5~ -3~ ---|
a|-8~ -7 ~-5~ -3~ ---|
E|-6~ -5~ -5~ -1~ ---| 2x

Chorus:
e|------------------------------------------------------------------|
b|------------------------------------------------------------------|
g|-----------------5-55-555-5-5-5-----------------------------------|
d|-3-33-333-3-3-3--5-55-555-5-5-5--7-77-777-7-7-7--5-55-555-5-5-5---|
a|-3-33-333-3-3-3--3-33-333-3-3-3--7-77-777-7-7-7--5-55-555-5-5-5---|
E|-1-11-111-1-1-1------------------5-55-555-5-5-5--3-33-333-3-3-3---| 2x

e|-------|
b|-------|
g|-------|
d|-3~ ---|
a|-3~ ---|
E|-1~----|

//...SOLO ???????...\\

e|------------------|
b|------------------|
g|------------------|
d|-8888888888-------|
a|-8888888888-------|
E|-6666666666-------|

Chorus:
e|----------------------------------------------------------------|
b|----------------------------------------------------------------|
g|-----------------5-55-555-5-5-5---------------------------------|
d|-3-33-333-3-3-3--5-55-555-5-5-5--7-77-777-7-7-7--5-55-555-5-5-5-|
a|-3-33-333-3-3-3--3-33-333-3-3-3--7-77-777-7-7-7--5-55-555-5-5-5-|
E|-1-11-111-1-1-1------------------5-55-555-5-5-5--3-33-333-3-3-3-|

Intro:
e|-------------------------------|
b|-------------------------------|
g|-------------------------------|
d|-----7-5--7-5--7-5--7-5-3------|
a|--3-------------------------3--|
E|-------------------------------| 1x

The 2time the end is played in a different way (like the intro)

Outro:
e|------------------------------------------------------------------------------|
b|------------------------------------------------------------------------------|
g|------------------------------------------------------------------------------|
d|-7-7-5--7-5--7-7-5--7-5---5-5-3--5-3--5-5-3--5-3---3-3-2--3-2--3-3-2--3-2-----|
a|------------------------------------------------------------------------------|
E|------------------------------------------------------------------------------| 

e|-------|
b|-------|
g|-------|
d|-3~ ---|
a|-3~ ---|
E|-1~----|

Tap to rate this tab
# A B C D E F G H I J K L M N O P Q R S T U V W X Y Z