Guitaretab - guitar tabs
Song name
# A B C D E F G H I J K L M N O P Q R S T U V W X Y Z

Fall Out Boy - Youre Crashing But Youre No Wave tab

Song: You're Crashing, But You're No Wave
Album: Infinity On High
Artist: Fall Out Boy
Date Tabbed: August 2007
Tabbed by: ssk9716757 (ssk9716757@hotmail.com)

This is my first tab. I tabbed it completely by ear, so I'm not sure
of its accuracy, but I tried my best. Either way, hope you enjoy, this
is a great song.

Key:
b  - bend
r  - release bend
/  - slide up
\  - slide down
h  - hammer-on
.  - palm muting
x  - mute
~  - let ring
+  - pinch harmonics
*  - artificial harmonics
p  - pull-off
v  - vibrato

Tuning: Drop D (low to high) DADGBe
 
Intro (figure out timing by listening to the song):

Gtr 1
e|-------------------------------55555555-|
B|-------------66666666-88888888-xxxxxxxx-|
G|-xx-77777777-77777777-77777777-77777777-|
D|-xx-xxxxxxxx-xxxxxxxx-xxxxxxxx-xxxxxxxx-|
A|-xx-55555555-55555555-55555555-55555555-|
D|----------------------------------------|

Gtr 2
e|----------------------------------------|
B|----------------------------------------|
G|-xx-77777777-77777777-77777777-77777777-|
D|-xx-xxxxxxxx-xxxxxxxx-xxxxxxxx-xxxxxxxx-|
A|-xx-55555555-55555555-55555555-55555555-|
D|----------------------------------------|


Verse:

Gtr 1 (The D.A. is dressed...)
e|---|
B|---|
G|-7-| Strum this continuously
D|-x-| throughout the verse
A|-5-|
D|---|

Gtr 2 (Comes in after a while, listen to the song
       to know exactly when)
e|----------------|------------------|
B|-6--------------|-6----------------|
G|---7--5-4h5p4/2-|---7--5-4h5p4/2~~-|
D|----------------|------------------|
A|----------------|------------------|
D|----------------|------------------|


Just before Pre-Chorus:

e|------|
B|------|
G|-xxxx-|
D|-xxxx-|
A|-xxxx-|
D|-xxxx-|


Pre-Chorus (listen for timing):

  Gtr 1
e|--------------|----|-------------------|
B|--------------|----|-------------------|
G|-777777777-10-|-x3-|-77777777-55555555-|
D|-xxxxxxxxx--x-|----|-xxxxxxxx-xxxxxxxx-|
A|-555555555--8-|----|-55555555-33333333-|
D|--------------|----|-------------------|
 |
 |Gtr 2
e|--------------|----|-------------------|
B|--------------|----|-------------------|
G|--------------|-x3-|-------------------|
D|-000000000-3--|----|-55555555-33333333-|
A|-000000000-3--|----|-55555555-33333333-|
D|-000000000-3--|----|-55555555-33333333-|

(Play Pre-Chorus pattern twice)


Chorus:

  Gtr 1
e|----------------------------------------------------|
B|----------------------------------------------------|
G|-1414141414141414-1010101010101010-1212121212121212-|
D|--x-x-x-x-x-x-x-x--x-x-x-x-x-x-x-x--x-x-x-x-x-x-x-x-|
A|-1212121212121212--8-8-8-8-8-8-8-8-1010101010101010-|
D|----------------------------------------------------|
 |
 |Gtr 2
e|----------------------------------------------------|
B|----------------------------------------------------|
G|----------------------------------------------------|
D|-8-8-8-8-8-8-8-8--3-3-3-3-3-3-3-3--5-5-5-5-5-5-5-5--|
A|-8-8-8-8-8-8-8-8--3-3-3-3-3-3-3-3--5-5-5-5-5-5-5-5--|
D|-8-8-8-8-8-8-8-8--3-3-3-3-3-3-3-3--5-5-5-5-5-5-5-5--|

  Gtr 1 (Cont'd)
e|-------------------|
B|-------------------|
G|-14141414----------|
D|--x-x-x-x--------5-|
A|-12121212--0-3-5---|
D|-------------------|
 |
 |Gtr 2 (Cont'd)
e|-------------------|
B|-------------------|
G|-------------------|
D|-7-7-7-7-7-7-7-7---|
A|-7-7-7-7-7-7-7-7---|
D|-7-7-7-7-7-7-7-7---|

  Gtr 1
e|----------------------------------------------------|
B|----------------------------------------------------|
G|-1414141414141414-1010101010101010-1212121212121212-|
D|--x-x-x-x-x-x-x-x--x-x-x-x-x-x-x-x--x-x-x-x-x-x-x-x-|
A|-1212121212121212--8-8-8-8-8-8-8-8-1010101010101010-|
D|----------------------------------------------------|
 |
 |Gtr 2
e|----------------------------------------------------|
B|----------------------------------------------------|
G|----------------------------------------------------|
D|-8-8-8-8-8-8-8-8--3-3-3-3-3-3-3-3--5-5-5-5-5-5-5-5--|
A|-8-8-8-8-8-8-8-8--3-3-3-3-3-3-3-3--5-5-5-5-5-5-5-5--|
D|-8-8-8-8-8-8-8-8--3-3-3-3-3-3-3-3--5-5-5-5-5-5-5-5--|

  Gtr 1 (Cont'd)
e|-------------------|
B|-------------------|
G|-14141414----------|
D|--x-x-x-x----------|
A|-12121212----------|
D|-------------------|
 |
 |Gtr 2 (Cont'd)
e|-------------------|
B|-------------------|
G|-------------------|
D|-7-7-7-7-7-7-7-7---|
A|-7-7-7-7-7-7-7-7---|
D|-7-7-7-7-7-7-7-7---|


Post-Chorus:

Gtr 1
e|---|
B|---|
G|-7-| Strum continuously until Verse 2
D|-x-|
A|-5-|
D|---|


Verse 2:

Gtr 1
e|---|
B|---|
G|-7-| Strum continuously throughout Verse 2
D|-x-|
A|-5-|
D|---|

Gtr 2 (Listen for when to come in)
e|----------------|------------------|
B|-6--------------|-6----------------|
G|---7--5-4h5p4/2-|---7--5-4h5p4/2~~-|
D|----------------|------------------|
A|----------------|------------------|
D|----------------|------------------|


Pre-Chorus (listen for timing):

  Gtr 1
e|--------------|----|-------------------|
B|--------------|----|-------------------|
G|-777777777-10-|-x3-|-77777777-55555555-|
D|-xxxxxxxxx--x-|----|-xxxxxxxx-xxxxxxxx-|
A|-555555555--8-|----|-55555555-33333333-|
D|--------------|----|-------------------|
 |
 |Gtr 2
e|--------------|----|-------------------|
B|--------------|----|-------------------|
G|--------------|-x3-|-------------------|
D|-000000000-3--|----|-55555555-33333333-|
A|-000000000-3--|----|-55555555-33333333-|
D|-000000000-3--|----|-55555555-33333333-|

(Play Pre-Chorus pattern twice)


Chorus:

  Gtr 1 (Case open, case shut...)
e|----------------------------------------------------|
B|----------------------------------------------------|
G|-1414141414141414-1010101010101010-1212121212121212-|
D|--x-x-x-x-x-x-x-x--x-x-x-x-x-x-x-x--x-x-x-x-x-x-x-x-|
A|-1212121212121212--8-8-8-8-8-8-8-8-1010101010101010-|
D|----------------------------------------------------|
 |
 |Gtr 2
e|----------------------------------------------------|
B|----------------------------------------------------|
G|----------------------------------------------------|
D|-8-8-8-8-8-8-8-8--3-3-3-3-3-3-3-3--5-5-5-5-5-5-5-5--|
A|-8-8-8-8-8-8-8-8--3-3-3-3-3-3-3-3--5-5-5-5-5-5-5-5--|
D|-8-8-8-8-8-8-8-8--3-3-3-3-3-3-3-3--5-5-5-5-5-5-5-5--|

  Gtr 1 (Cont'd)
e|-------------------|
B|-------------------|
G|-14141414----------|
D|--x-x-x-x--------5-|
A|-12121212--0-3-5---|
D|-------------------|
 |
 |Gtr 2 (Cont'd)
e|-------------------|
B|-------------------|
G|-------------------|
D|-7-7-7-7-7-7-7-7---|
A|-7-7-7-7-7-7-7-7---|
D|-7-7-7-7-7-7-7-7---|
[ Tab from: http://www.guitaretab.com/f/fall-out-boy/84192.html ]
  Gtr 1
e|----------------------------------------------------|
B|----------------------------------------------------|
G|-1414141414141414-1010101010101010-1212121212121212-|
D|--x-x-x-x-x-x-x-x--x-x-x-x-x-x-x-x--x-x-x-x-x-x-x-x-|
A|-1212121212121212--8-8-8-8-8-8-8-8-1010101010101010-|
D|----------------------------------------------------|
 |
 |Gtr 2
e|----------------------------------------------------|
B|----------------------------------------------------|
G|----------------------------------------------------|
D|-8-8-8-8-8-8-8-8--3-3-3-3-3-3-3-3--5-5-5-5-5-5-5-5--|
A|-8-8-8-8-8-8-8-8--3-3-3-3-3-3-3-3--5-5-5-5-5-5-5-5--|
D|-8-8-8-8-8-8-8-8--3-3-3-3-3-3-3-3--5-5-5-5-5-5-5-5--|

  Gtr 1 (Cont'd)
e|-------------------|
B|-------------------|
G|-14141414----------|
D|--x-x-x-x----------|
A|-12121212----------|
D|-------------------|
 |
 |Gtr 2 (Cont'd)
e|-------------------|
B|-------------------|
G|-------------------|
D|-7-7-7-7-7-7-7-7---|
A|-7-7-7-7-7-7-7-7---|
D|-7-7-7-7-7-7-7-7---|


Bridge:

Gtr 2
e|------------------------------------|
B|------------------------------------|
G|------------------------------------|
D|-7--5-3--7--5-10--7--5-5-3--2-3-2---|
A|-7--5-3--7--5-10--7--5-5-3--------3-|
D|-7--5-3--7--5-10--7--5-5-3----------|

Gtr 2
e|-------------------------------------|
B|-------------------------------------|
G|-------------------------------------|
D|-7--5-3--7--5-10--7--5-5-3--33-5-5-3-|
A|-7--5-3--7--5-10--7--5-5-3--33-5-5-3-|
D|-7--5-3--7--5-10--7--5-5-3--33-5-5-3-|

e|----------------|----------------|
B|----------------|----------------|
G|-77-777-777-10\-|-5/7/9/10\9\7\5-|
D|-xx-xxx-xxx--x--|-x--------------|
A|-55-555-555--8\-|-3/5/7/-8\7\5\3-|
D|----------------|----------------|


Final Chorus:

  Gtr 1
e|--------------------------------------------------------------|
B|--------------------------------------------------------------|
G|-1010-101010-101010-101010-101010-101010-101010-101010-101010-|
D|--x-x--x-x-x--x-x-x--x-x-x--x-x-x--x-x-x--x-x-x--x-x-x--x-x-x-|
A|--8-8--8-8-8--8-8-8--8-8-8--8-8-8--8-8-8--8-8-8--8-8-8--8-8-8-|
D|--------------------------------------------------------------|
 |
 |Gtr 2
e|----------------------------------------------------|
B|----------------------------------------------------|
G|----------------------------------------------------|
D|-8-8-8-8-8-8-8-8--3-3-3-3-3-3-3-3--5-5-5-5-5-5-5-5--|
A|-8-8-8-8-8-8-8-8--3-3-3-3-3-3-3-3--5-5-5-5-5-5-5-5--|
D|-8-8-8-8-8-8-8-8--3-3-3-3-3-3-3-3--5-5-5-5-5-5-5-5--|

  Gtr 1 (Cont'd)
e|-----------------|
B|-----------------|
G|-101010----------|
D|--x-x-x--------5-|
A|--8-8-8-0-3-5----|
D|-----------------|
 |
 |Gtr 2 (Cont'd)
e|-------------------|
B|-------------------|
G|-------------------|
D|-7-7-7-7-7-7-7-7---|
A|-7-7-7-7-7-7-7-7---|
D|-7-7-7-7-7-7-7-7---|

  Gtr 1
e|--------------------------------------------------------------|
B|--------------------------------------------------------------|
G|-1010-101010-101010-101010-101010-101010-101010-101010-101010-|
D|--x-x--x-x-x--x-x-x--x-x-x--x-x-x--x-x-x--x-x-x--x-x-x--x-x-x-|
A|--8-8--8-8-8--8-8-8--8-8-8--8-8-8--8-8-8--8-8-8--8-8-8--8-8-8-|
D|--------------------------------------------------------------|
 |
 |Gtr 2
e|----------------------------------------------------|
B|----------------------------------------------------|
G|----------------------------------------------------|
D|-8-8-8-8-8-8-8-8--3-3-3-3-3-3-3-3--5-5-5-5-5-5-5-5--|
A|-8-8-8-8-8-8-8-8--3-3-3-3-3-3-3-3--5-5-5-5-5-5-5-5--|
D|-8-8-8-8-8-8-8-8--3-3-3-3-3-3-3-3--5-5-5-5-5-5-5-5--|

  Gtr 1 (Cont'd)
e|----------------|
B|----------------|
G|-101010-10\-----|
D|--x-x-x--x------|
A|--8-8-8--8\-----|
D|----------------|
 |
 |Gtr 2 (Cont'd)
e|-------------------|
B|-------------------|
G|-------------------|
D|-7-7-7-7-7-7-7-7\---|
A|-7-7-7-7-7-7-7-7\---|
D|-7-7-7-7-7-7-7-7\---|

  Gtr 1
e|--------------------------------------------------------------|
B|--------------------------------------------------------------|
G|-1010-101010-101010-101010-101010-101010-101010-101010-101010-|
D|--x-x--x-x-x--x-x-x--x-x-x--x-x-x--x-x-x--x-x-x--x-x-x--x-x-x-|
A|--8-8--8-8-8--8-8-8--8-8-8--8-8-8--8-8-8--8-8-8--8-8-8--8-8-8-|
D|--------------------------------------------------------------|
 |
 |Gtr 2
e|----------------------------------------------------|
B|----------------------------------------------------|
G|----------------------------------------------------|
D|-8-8-8-8-8-8-8-8--3-3-3-3-3-3-3-3--5-5-5-5-5-5-5-5--|
A|-8-8-8-8-8-8-8-8--3-3-3-3-3-3-3-3--5-5-5-5-5-5-5-5--|
D|-8-8-8-8-8-8-8-8--3-3-3-3-3-3-3-3--5-5-5-5-5-5-5-5--|

  Gtr 1 (Cont'd)
e|-----------------|
B|-----------------|
G|-101010----------|
D|--x-x-x--------5-|
A|--8-8-8-0-3-5----|
D|-----------------|
 |
 |Gtr 2 (Cont'd)
e|-------------------|
B|-------------------|
G|-------------------|
D|-7-7-7-7-7-7-7-7---|
A|-7-7-7-7-7-7-7-7---|
D|-7-7-7-7-7-7-7-7---|

  Gtr 1
e|--------------------------------------------------------------|
B|--------------------------------------------------------------|
G|-1010-101010-101010-101010-101010-101010-101010-101010-101010-|
D|--x-x--x-x-x--x-x-x--x-x-x--x-x-x--x-x-x--x-x-x--x-x-x--x-x-x-|
A|--8-8--8-8-8--8-8-8--8-8-8--8-8-8--8-8-8--8-8-8--8-8-8--8-8-8-|
D|--------------------------------------------------------------|
 |
 |Gtr 2
e|----------------------------------------------------|
B|----------------------------------------------------|
G|----------------------------------------------------|
D|-8-8-8-8-8-8-8-8--3-3-3-3-3-3-3-3--5-5-5-5-5-5-5-5--|
A|-8-8-8-8-8-8-8-8--3-3-3-3-3-3-3-3--5-5-5-5-5-5-5-5--|
D|-8-8-8-8-8-8-8-8--3-3-3-3-3-3-3-3--5-5-5-5-5-5-5-5--|

  Gtr 1 (Cont'd)
e|----------------|
B|----------------|
G|-101010-10\-----|
D|--x-x-x--x------|
A|--8-8-8--8\-----|
D|----------------|
 |
 |Gtr 2 (Cont'd)
e|--------------------|
B|--------------------|
G|--------------------|
D|-7-7-7-7-7-7-7-7\---|
A|-7-7-7-7-7-7-7-7\---|
D|-7-7-7-7-7-7-7-7\---|

And that's it. Please rate/comment.



"You're Crashing, But You're No Wave" Lyrics

The D.A. is dressed to the nines
In the mirror he practices all his lines
To his closing argument
Twelve hearts beat in favor
I'm guessing that he read the morning paper
The headline reads "The Man Hangs
But the jury doesn't"

And everyone is looking forward to lead
The United States versus disbelief
Mothers cast tears on both sides of
The aisle
Youíve thrown, face the war
The verdict falls like badgering, but just like girls
Only breathing with the aid of denial

Case open, case shut,
But you could pay to close it like a casket
Baby boy canít lift his head, he canít
Isnít it tragic?

He glances at his peers sitting, seven Ďtill twelve
Stacked on one Ďtill six the gallery is hushed
Boys in three pieces dream of
Grandstanding and bravado
The city sleeps in a cell
Not withstanding what we all know
Hang on a rope that bade him breath
Which ever you prefer


And everyone is looking for a leave
A bidding war for an old friendís grief
The coffin kid, the coffinís charm and
Cause, not a word that could make you comprehend
Too well dressed for the witness stand
The press raves for whichever headline wins

Case open, case shut,
But you could pay to close it like a casket
Baby boy canít lift his head, he canít
Isnít it tragic?

Fresh pressed suit and tie
I am pressed for sing and die
Can duck my way out of anything
The former reads the verdict
"In the above entitled action
We find the defendant
Guilty..."

Case open, case shut,
But you could pay to close it like a casket
Baby boy canít lift his head, he canít
Isnít it tragic?

Case open, case shut,
But you could pay to close it like a casket
Baby boy canít lift his head, he canít
Isnít it tragic? 
Related for Youre Crashing But Youre No Wave tab