Song name
# A B C D E F G H I J K L M N O P Q R S T U V W X Y Z

Fall Out Boy - Whats This tab

----------------------------------------------------------------------------
			     Whats This? - Fall Out Boy
----------------------------------------------------------------------------
Tabbed by: Sny6les
Email:  Sny6les@aol.com

I know people wanted more of the song, and I dont have the whole thing, just a little 
more then what the other tab had, and I corrected a few things, I think this is almost 
correct(or near to it lol) mind you that this is my second tab. email me with any questions, leave comments!


Tuning: standard

e|----------------------------------------------------------|
B|------------------8-10-11-10------------8-10--------------|
G|--7-10-7-10-7-10--------------6-9-6-9-10----10------------|
D|----------------------------------------------------------|
A|----------------------------------------------------------|
E|----------------------------------------------------------|

e|---------------------------------------------------|
B|-----------8-10-11-10----10---10--8----------------|
G|--7-10-7-10------------10---10--10--9-7------------|
D|---------------------------------------------------|
A|---------------------------------------------------|
E|---------------------------------------------------|

e|----8-----------------10---------------------------------------|
B|-------10-----------10------11---------------------------------|
G|---------10-------10----------12-------------------------------|
D|-------------7--10--------------x---------------10---8-10-12---|
A|---------------------------------13--12p10h12h13---------------|
E|---------------------------------------------------------------|

e|-------------------------------------------------------|
B|-------------------------------------------------------|
G|----------------12-10-------------13-12---------12-----|
D|---10-13--------------13-12-10--------13-------12------|
A|--------13-10--------------------------14-----14-------|
E|----------------------------------------15---15--------|

e|----------------------------------------------------------------|
B|----------------------------------------------------------------|
G|----------------------------------------------------------------|
D|----------1010--9-------99--10------1010--9-4-9-4-9-4-9----4-5--|
A|----7-10---7-7--6--6-9--66---7-7-10--7-7--6-6-6-6-6-6-6----2-3--|
E|----------------------------------------------------------------|


| /  slide up
| \  slide down
| h  hammer-on
| p  pull-off
| ~  vibrato
| +  harmonic
| x  Mute note
===============================================================================
Tap to rate this tab
# A B C D E F G H I J K L M N O P Q R S T U V W X Y Z