Song name
# A B C D E F G H I J K L M N O P Q R S T U V W X Y Z

Fall Out Boy - Growing Up tab

-------------------------------------------------------------------------------
			     Growing Up - Fall Out Boy
-------------------------------------------------------------------------------
Tabbed by: Andrew Lassise
Email: lassise2@hotmail.com

Tuning: EADGBE

Intro (0:05)
Guitar 1
e|-----------------------------|
B|-----------------------------|
G|-----------------------------|
D|---7-7-7-7---5-5-5-5---5-5---|
A|---7-7-7-7---5-5-5-5---5-5---|
E|---5-5-5-5---3-3-3-3---3-3---|

Intro (0:07)
Guitar 1
e|------------------------------------------------|----------------------------|
B|------------------------------------------------|----------------------------|
G|-5~--------------9~-------------10~-------------|----------------------------|
D|-5~--------------9~-------------10~-------------|-7-7-7-7---5-5-5-5---5-5----|
A|-3~--------------7~--------------8~-------------|-7-7-7-7---5-5-5-5---5-5----|
E|------------------------------------------------|-5-5-5-5---3-3-3-3---3-3----|

Intro (0:07)
Guitar 2
e|------------------------------------------------|
B|------------------------------------------------|
G|----5-5--4--0~------5-5--4--0~------5-5--4--0~--|
D|------------------------------------------------|
A|------------------------------------------------|
E|------------------------------------------------|

Intro (0:14)
Guitar 1
e|------------------------------------------------|---------------------------------|
B|------------------------------------------------|---------------------------------|
G|-5~--------------9~-------------10~-------------|---------------------------------|
D|-5~--------------9~-------------10~-------------|-7-7-7-7---5-5-5-5---5-5-----3~--|
A|-3~--------------7~--------------8~-------------|-7-7-7-7---5-5-5-5---5-5-----3~--|
E|------------------------------------------------|-5-5-5-5---3-3-3-3---3-3-----1~--|

Intro (0:14)
Guitar 2
e|------------------------------------------------|
B|------------------------------------------------|
G|----5-5--4--0~------5-5--4--0~------5-5--4--0~--|
D|------------------------------------------------|
A|------------------------------------------------|
E|------------------------------------------------|

Verse 1 (0:22)
Guitar 1 & 2 
e|---------------------------------------------------------------------------------------|
B|---------------------------------------------------------------------------------------|
G|----5-5-5-5-5-5-5-5-5-5---------------------------------------------5-5-5-5-5-5-5-5----|
D|----5-5-5-5-5-5-5-3-5-5-3-3-3-3-3-3-3-3-3-3-3-3-7-7-7-7-7-5-5-5-5-5-5-5-5-5-5-5-5-5----| X4
A|----3-3-3-3-3-3-3-3-3-3-3-3-3-3-3-3-3-3-3-3-3-3-7-7-7-7-7-5-5-5-5-5-3-3-3-3-3-3-3-3----|
E|--------------------------1-1-1-1-1-1-1-1-1-1-1-5-5-5-5-5-3-3-3-3-3--------------------|
 pm     . . . . . . .         . . . . . . . .       . . . .   . . . .
 
Chorus (0:49)
Guitar 1
e|------------------------------------|
B|------------------------------------|
G|--5-5-5-5---------------------------|
D|--5-5-5-5-5-5-5-5-7-7-7-7-3-3-3-3---| X3
A|--3-3-3-3-5-5-5-5-7-7-7-7-3-3-3-3---|
E|----------3-3-3-3-5-5-5-5-1-1-1-1---|

Chorus (0:59)
Guitar 2
e|--------------------------------|
B|--------------------------------|
G|--5-4-0---7-5-4---5-4-0---7-5-4-|
D|--------------------------------| X3
A|--------------------------------|
E|--------------------------------|

Chorus (0:59)
Guitar 1
e|------------------------------------|
B|------------------------------------|
G|--5-5-5-5---------------------------|
D|--5-5-5-5-5-5-5-5-7-7-7-7-3-2-3-2---| X1
A|--3-3-3-3-5-5-5-5-7-7-7-7-3-2-3-2---|
E|----------3-3-3-3-5-5-5-5-1-0-1-0---|

Chorus (0:59)
Guitar 2
e|--------------------------------|
B|--------------------------------|
G|--5-4-0---7-5-4---5-4-0---------|
D|--------------------------------| X1
A|--------------------------------|
E|--------------------------------|

Chorus (1:03)
Guitar 1
e|------------------------------------------------|-----------------------------|
B|------------------------------------------------|-----------------------------|
G|-5~--------------9~-------------10~-------------|-----------------------------|
D|-5~--------------9~-------------10~-------------|-7-7-7-7---5-5-5-5---5-5-----| X2
A|-3~--------------7~--------------8~-------------|-7-7-7-7---5-5-5-5---5-5-----|
E|------------------------------------------------|-5-5-5-5---3-3-3-3---3-3-----|

Chorus (1:03)
Guitar 2
e|------------------------------------------------|
B|------------------------------------------------|
G|----5-5--4--0~------5-5--4--0~------5-5--4--0~--|
D|------------------------------------------------| X2
A|------------------------------------------------|
E|------------------------------------------------|

Verse 2 Starts without guitar. 
Second time through play the same as verse 1, without the mutes between chords
Chorus 2 is the same as Chorus 1

Bridge (1:58)
Guitar 1
e|-------------------------------------------------------------------------|
B|-------------------------------------------------------------------------|
G|---5-5-------------------------------------------------------------------|
D|---5-5-----------3-3------------7-7------------5-5-----------------------| X4
A|---3-5-----------3-3------------7-7------------5-5-----------------------|
E|-----------------1-1------------5-5------------3-3-----------------------|

Bridge (1:58)
Guitar 2
e|---------------------------------------------------------------------------|
B|---------------------------------------------------------------------------|
G|-------5-5-4-0--------5-5-4-0--------5-5-4-0--------5-5-4-0----------------|
D|---------------------------------------------------------------------------| X4
A|---------------------------------------------------------------------------|
E|---------------------------------------------------------------------------|

Outro (2:20)
Guitar 1
e|----------------------------------|
B|----------------------------------|
G|----5--5--------------------------|
D|----5--5--3--3-/-7-7-/-5-5--------| X4
A|----3--3--3--3-/-7-7-/-5-5--------|
E|----------1--1-/-5-5-/-3-3--------|

End on
e|----------|
B|----------|
G|----5~----|
D|----5~----| 
A|----3~----|
E|----------|

| /  slide up
| \  slide down
| h  hammer-on
| p  pull-off
| ~  vibrato
| +  harmonic
| x  Mute note
===============================================================================
Tap to rate this tab
# A B C D E F G H I J K L M N O P Q R S T U V W X Y Z