Song name
# A B C D E F G H I J K L M N O P Q R S T U V W X Y Z

Fall Out Boy - Shes My Winona tab

-------------------------------------------------------------------------------
			     She’s My Winona – Fall Out Boy
-------------------------------------------------------------------------------
Tabbed by: hockeyamh
Email: helwiga@fsuimail.ferris.edu

Tuning: Drop D

This song is one of the best off Folie a deux in my opinion, and so I thought I’d give a 
a shot.
Im not 100% on the Intro/Verse chords, but they sound right if not fine to me. If you 
to help
me out leave a comment or an e-mail. Thanks!


INTRO/VERSE    2x
e|---------------------------------------------------------------------------|
B|---------------------------------------------------------------------------|
G|----11-11----9-9-9----7-7---9-9-9—-11-11-11-11-11-11-11—11-11--------------|
D|-----x--x----x-x-x----x-x---x-x-x---x--x--x--x--x--x--x--x--x--------------|
A|-----9--9----7-7-7----5-5---7-7-7---9--9--9--9--9--9--9--9--9--------------|
D|---------------------------------------------------------------------------|

INTRO-Guitar 2 at 0:07
e|---------------------------------------------------------------------------|
B|---------------------------------------------------------------------------|
G|---------------------------------------------------------------------------|
D|----9-----9-9-----9-----9-9-----9-----9-9-----9-----9-9--------------------|
A|----9-----9-9-----9-----9-9-----9-----9-9-----9-----9-9--------------------|
D|----9-----9-9-----9-----9-9-----9-----9-9-----9-----9-9--------------------|

Pre-Verse (Oh-oh-oh-oh’s) 0:14-------------------------------------------------|     2x
e|-----------------------------------------------------------------------------|
B|-----------------------------------------------------------------------------|
G|-----------------------------7777777777777777--------------------------------|
D|---------9999-7777-5555-2222-xxxxxxxxxxxxxxxx--------------------------------|
A|---------9999-7777-5555-2222-5555555555555555--------------------------------|
D|---------9999-7777-5555-2222-------------------------------------------------|

VERSE 1: “Life’s just a pace-car on death…”  0:28   4x
e|---------------------------------------------------------------------------|
B|---------------------------------------------------------------------------|
G|----11-11----9-9-9----7-7---9-9-9—-11-11-11-11-11-11-11—11-11--------------|
D|-----x--x----x-x-x----x-x---x-x-x---x--x--x--x--x--x--x--x--x--------------|
A|-----9--9----7-7-7----5-5---7-7-7---9--9--9--9--9--9--9--9--9--------------|
D|---------------------------------------------------------------------------|

At “The only thing suicidal here is the door” Guitar 2 comes in with  2x
e|---------------------------------------------------------------------------|
B|---------------------------------------------------------------------------|
G|-------------------------------------7-7-7-7--7-7-7-7----------------------|
D|-----9--9----7-7-7----5-5----7-7-7---x-x-x-x--x-x-x-x--------7-------------|
A|-----9--9----7-7-7----5-5----7-7-7---5-5-5-5--5-5-5-5----------------------|
D|-----9--9----7-7-7----5-5----7-7-7-----------------------7-9---------------|

PRECHORUS: “Hell or glory…” 0:56  2x
e|---------------------------------------------------------------------------|
B|---------------------------------------------------------------------------|
G|-----------------------7777777777777777------------------------------------|
D|---9999-7777-5555-7777-xxxxxxxxxxxxxxxx---------x-x------------------------|
A|---9999-7777-5555-7777-5555555555555555---------x-x------------------------|
D|---9999-7777-5555-7777--------------------------x-x------------------------|

CHORUS:”The Thunder” 1:10
e|---------------------------------------------------------------------------|
B|---------------------------------------------------------------------------|
G|-------------------------------------7777777777777777-------------------7~-|
D|---9999777755555555-9999777755557777-xxxxxxxxxxxxxxxx-9999777755557777--x--|
A|---9999777755555555-9999777755557777-5555555555555555-9999777755557777--5~-|
D|---9999777755555555-9999777755557777------------------9999777755557777-----|

PREVERSE (Oh-oh-oh-oh’s) 1:28--------------------------------------------------|  2x
e|-----------------------------------------------------------------------------|
B|-----------------------------------------------------------------------------|
G|-----------------------------7777777777777777--------------------------------|
D|---------9999-7777-5555-2222-xxxxxxxxxxxxxxxx--------------------------------|
A|---------9999-7777-5555-2222-5555555555555555--------------------------------|
D|---------9999-7777-5555-2222-------------------------------------------------|

VERSE 2: “We didn’t come to compete…” 1:42  4x
e|---------------------------------------------------------------------------|
B|---------------------------------------------------------------------------|
G|----11-11----9-9-9----7-7---9-9-9—-11-11-11-11-11-11-11—11-11--------------|
D|-----x--x----x-x-x----x-x---x-x-x---x--x--x--x--x--x--x--x--x--------------|
A|-----9--9----7-7-7----5-5---7-7-7---9--9--9--9--9--9--9--9--9--------------|
D|---------------------------------------------------------------------------|

At “I’m never the same person when I go to sleep…” Guitar 2 comes in with  2x
e|---------------------------------------------------------------------------|
B|---------------------------------------------------------------------------|
G|-------------------------------------7-7-7-7--7-7-7-7----------------------|
D|-----9--9----7-7-7----5-5----7-7-7---x-x-x-x--x-x-x-x--------7-------------|
A|-----9--9----7-7-7----5-5----7-7-7---5-5-5-5--5-5-5-5----------------------|
D|-----9--9----7-7-7----5-5----7-7-7-----------------------7-9---------------|

PRECHORUS: “Hell or glory…” 2:11  2x
e|---------------------------------------------------------------------------|
B|---------------------------------------------------------------------------|
G|-----------------------7777777777777777------------------------------------|
D|---9999-7777-5555-7777-xxxxxxxxxxxxxxxx---------x-x------------------------|
A|---9999-7777-5555-7777-5555555555555555---------x-x------------------------|
D|---9999-7777-5555-7777--------------------------x-x------------------------|

CHORUS:”The Thunder” 2:24
e|---------------------------------------------------------------------------|
B|---------------------------------------------------------------------------|
G|-------------------------------------7777777777777777-------------------7~-|
D|---9999777755555555-9999777755557777-xxxxxxxxxxxxxxxx-9999777755557777--x--|
A|---9999777755555555-9999777755557777-5555555555555555-9999777755557777--5~-|
D|---9999777755555555-9999777755557777------------------9999777755557777-----|

Bridge: 2:42 Pete just rocks out on bass here with Andy, so no guitar.

PRECHORUS: “Hell or glory”  2:56, Acoustic version of the verse
e|---------------------------------------------------------------------------|
B|---------------------------------------------------------------------------|
G|----11-11----9-9-9----7-7---9-9-9—-11-11-11-11-11-11-11—11-11--------------|
D|-----x--x----x-x-x----x-x---x-x-x---x--x--x--x--x--x--x--x--x--------------|
A|-----9--9----7-7-7----5-5---7-7-7---9--9--9--9--9--9--9--9--9--------------|
D|---------------------------------------------------------------------------|

Then Guitar 2 comes in at “Then came a baby boy…”
e|---------------------------------------------------------------------------|
B|---------------------------------------------------------------------------|
G|---------------------------------------------7/----------------------------|
D|-----9-------------7--7----------9-----------x-----------------------------|
A|-----9-------------7--7----------9-----------5/----------------------------|
D|-----9-------------7--7----------9-----------------------------------------|

FINAL CHORUS:”The Thunder” 3:10
e|---------------------------------------------------------------------------|
B|---------------------------------------------------------------------------|
G|-------------------------------------7777777777777777-------------------7~-|
D|---9999777755555555-9999777755557777-xxxxxxxxxxxxxxxx-9999777755557777--x--|
A|---9999777755555555-9999777755557777-5555555555555555-9999777755557777--5~-|
D|---9999777755555555-9999777755557777------------------9999777755557777-----|

The final chorus is played twice, and on the second time play…
e|---------------------------------------------------------------------------|
B|---------------------------------------------------------------------------|
G|--------------------------------------------9999999999999999---------------|
D|-111111111999977777777-11111111999977779999-xxxxxxxxxxxxxxxx---------------|
A|-111111111999977777777-11111111999977779999-7777777777777777---------------|
D|-111111111999977777777-11111111999977779999--------------------------------|

e|---------------------------------------------------------------------------|
B|---------------------------------------------------------------------------|
G|---------------------------------------------------------------------------|
D|-111111111999977779999--2~-------------------------------------------------|
A|-111111111999977779999--2~-------------------------------------------------|
D|-111111111999977779999--2~-------------------------------------------------|
The End!

For a lot of these chords:
e|--------------|
B---------------|
G|------7-------|
D|------x-------|
A|------5-------|
D|--------------|
I personally just play:
e|--------------|
B---------------|
G|--------------|
D|------12------|
A|------12------|
D|------12------|
But it’s up to you on which you’d rather play.

I know it’s not 100% yet, but it sounds very close. It’s a great song, so if anyone has any
suggestions definitely hook me up. Just leave a comment and I’ll make changes. Thanks!

| /  slide up
| \  slide down
| h  hammer-on
| p  pull-off
| ~  vibrato
| +  harmonic
| x  Mute note
===============================================================================
Tap to rate this tab
# A B C D E F G H I J K L M N O P Q R S T U V W X Y Z